Kiss

It Never Ends

by: Danijel

Pronađi akord!

Ne znaš kako odsvirati neki od akorda pjesmi It Never Ends? Upiši akord u tražilicu i saznaj!

Traženi akord će se prikazati ovdje

Od istog izvođača

Pregledano 1116 puta
Pregledano 830 puta
Pregledano 1069 puta
Pregledano 4963 puta
Pregledano 806 puta
Trebaš ritam za ovu pjesmu? Pronađi ga ovdje
All guitars tuned down to C#
Dots below tab represents fourths; set your metronome to about 60, each click is a dot.

Intro Riff:
(play gtr. one alone for two turns, then gtr. one + two until the drums starts)

gtr. one, slightly distorted, w/ flanger
----------1-----------------------------------------------1-------------------------------
--------0---0-------------------------------------------0---0-----------------------------
--------------3-----------------------------------------------3---------------------------
--------------2-----------------------------------------------2---------------------------
------------------------------------------------------------------------------------------
-0----------------------------------------------0-----------------------------------------
. . . . . . . . . . . .

gtr. two, heavy distorted sound
------------------------------------------------------------------------------------------
------------------------------------------------------------------------------------------
------------------------------------------------------------------------------------------
------------------------------------------------------------------------------------------
------------------------------------------------------------5-7---------------------------
-0-----/7-----6-----------------0------/7-----6-------------3-5-0------/7-----6-----------
. . . . . . . . | | . . . .
| |
(2nd time only)
Verse Riff:
(play gtr. one + gtr. two)

gtr. one, slightly distorted, w/ flanger
--------0-------------------------------0-----------------
--------0-----0-------------------------0-----0-----------
--------------3-------------------------------3-----------
--------------3-------------------------------3-----------
----------------------------5-7---------------------------
-0--------------------------3-5-0-------------------------
. . . . . . . .

gtr. two, heavy distorted sound
----------------------------------------------------------
----------------------------------------------------------
--------4-----3-------------------------4-----3-----------
-2------4-----3-------------5-7-2-------4-----3-----------
-2------2-----1-------------5-7-2-------2-----1-----------
-0--------------------------3-5-0-------------------------
. . . . . . . .


Pre-chorus / Bridge:

both guitars, play pattern twice,
----------------------------------------------------------
----------------------------------------------------------
----------------7-----------------------------------------
-5----2---------7----8------7---5-----2-------------------
-5----2---------5----8------7---5-----2-------------------
-3----0---------5----6------5---3-----0-------------------
Komentari
Još nema komentara