Kiss

Got To Choose

by: Danijel

Pronađi akord!

Ne znaš kako odsvirati neki od akorda pjesmi Got To Choose? Upiši akord u tražilicu i saznaj!

Traženi akord će se prikazati ovdje

Od istog izvođača

Pregledano 973 puta
Pregledano 1034 puta
Pregledano 1737 puta
Pregledano 760 puta
Pregledano 1171 puta
Trebaš ritam za ovu pjesmu? Pronađi ga ovdje
Tune down 1/2 step

Intro

----------------------------------
---------------------------------
-9--5--7-------------7--7---9--9--5--7----
-9--5--7-------------7--7---9--9--5--7----
-7--3--5--5-5-5-5-5--5---7--7--3--5----
---------------------------------

------------------------------
-------------------------------
------------7--7--------------
------------7--7-------------
-5-5-5-5-5--5-------------
-------------------------------

fill on intro

---------------------------------
--15----15----------------------
--17b--17b------------------
---------------------------------
---------------------------------
---------------------------------

main riff/verse

---------------------------------
---------------------------------
-7--7--2--4--5------------------------
-7--7--2--4--5--5--5--5----5-5--5----
-5--5--0--2--3--5--5--5----5-5--5----
-------------------3--3--3----3-3--3---

chorus

---------------------------------
---------------------------------
-3--3--------------------5--5--------
-3--3--------------------5--5--------
-1--1--0h2h3p2p0--3--3--------
---------------------------------

---------------------------------
---------------------------------
-------------------5--5------------
-------------------5--5------------
-0h2h3p2p0--3--3-------------
---------------------------------

---------------------------------
---------------------------------
-------------------7--------------
-------------------7--------------
-0h2h3p2p0--5---------------
---------------------------------

---------------------------------
---------------------------------
---------------------------------
---------------------------------
-0h4h5p4p0--0h2h3p2p0----
---------------------------------

outro

---------------------------------
---------------------------------
-7--7--2--4--5----2--4--5-------
-7--7--2--4--5----2--4--5------
-5--5--0--2--3----0--2--3-------
---------------------------------

---------------------------------
---------------------------------
-2--4--5---5--5--5--5--5--5--7----
-2--4--5---5--5--5--5--5--5--7-----
-0--2--3---3--3--3--3--3--3--5-----
---------------------------------
Komentari
Još nema komentara