Kiss

God Of Thunder

by: Danijel

Pronađi akord!

Ne znaš kako odsvirati neki od akorda pjesmi God Of Thunder? Upiši akord u tražilicu i saznaj!

Traženi akord će se prikazati ovdje

Od istog izvođača

Pregledano 1041 puta
Pregledano 1133 puta
Pregledano 1169 puta
Pregledano 898 puta
Pregledano 1172 puta
Trebaš ritam za ovu pjesmu? Pronađi ga ovdje
God of Thunder by Kiss

Tune down 1/2 step


Intro
------------------------------------------------
-------------------------------------------------
------------------------------------------------
---------------------------------------------------5
--------7-----5--5h7----------7------5--7--------
-0--0-----0-------------0--0------0----------------

------------------------------------------------
------------------------------------------------
------------------------------------------------
--------------------------5------5--7--7b--5--7--
--------7-----5--5h7------7------------------------
-0--0-----0----------------------------------------

------------------------------------------------
------------------------------------------------
--------------------------5--------5--7--7b--5--7--
--------------------------5--------5--7--7----5--7--
--------7-----5--5h7-------7-----------------------
-0--0-----0----------------------------------------

------------------------------------------------
------------------------------------------------
------------------------------------------------
------------------------------------------------
---------7-----5--5h7----------7------5h7--5h7---
--0--0-----0-------------0--0------0------------------

prechorus

------------------------------------------------
------------------------------------------------
------------------------------------------------
-5--5---------7--7--9--5--5--9--------------
-3--3--5--5--5--5--7--3--3--7---------------
--------3--3--------------------------------------

------------------------------------------------
--------------------------------------------3----
--------------------4----------------------0---3---
--2---(7times)--4---5--5--5--5--5--0---2--(8X)-
--0-----------------2---3--2--3--2--3------0---------
------------------------------------------------

Outro

------------------------------------------------
------------------------------------------------
--9--9--------------------------------------------
--9--9--------------------------------------------
--7--7--------------------------------------------
------------------------------------------------
Komentari
Još nema komentara