Kiss

Firehouse

by: Danijel

Pronađi akord!

Ne znaš kako odsvirati neki od akorda pjesmi Firehouse? Upiši akord u tražilicu i saznaj!

Traženi akord će se prikazati ovdje

Od istog izvođača

Pregledano 1173 puta
Pregledano 912 puta
Pregledano 1170 puta
Pregledano 1126 puta
Pregledano 992 puta
Trebaš ritam za ovu pjesmu? Pronađi ga ovdje
Firehouse by Kiss

Tune down 1/2 step

Intro (unsure about this part)

------------------------------------------
------------------------------------------
--------------------------9--7--9--7--9--7------
-7--9--10--9--7--9---7--7--7--7--7--7--7--7--7--7-
-7--9--10--9--7--9-------------------------7--7--7--7
-5--7----8--7--5--7-------------------------5--5--5--5

Main riff
------------------------------------------
------------------------------------------
------------------------------------------
-7-x--5-------------7--x--5----------------
-7-x--5-------------7--x--5----------------
-5-x--3--0--3--0--5--x--3--0--3--0----

------------------------------------------
-8--7--8--7--8--7------------------------
-9--7--7--7--7--7------------------------
-7--7--9--7--9--7----x--7----------------
-------------------------x--7---------------
-------------------------x--5---------------

Verses

------------------------------------------
-------------------8--7--8--7--8--7-------------
-------------------9--7--9--7--9--7-------------
-7--7----7--7---7--7--7--7--7--7--x--7------
-7--7----7--7-------------------------x--7------
-5--5----5--5-------------------------x--5------

Right before chorus

------------------------------------------
------------------------------------------
-------------9--9---------------------------
-9--5--3---9--9--7-----------------------
-9--5--3---7--7--7-------------------------
-7--3--1----------5-----------------------

before solo

------------------------------------------
------------------------------------------
------------------------------------------
-10--x--10--10-----12--x--12--12------
-10--x--10--10-----12--x--12--12------
---8--x----8---8-----10--x--10--10------

------------------------------------------
------------------------------------------
------------------------------------------
-3--x--3--3-----5--x--5--5-------------
-3--x--3--3-----5--x--5--5-------------
-1--x--1--1-----3--x--3--3-------------

outro

------------------------------------------
------------------------------------------
-12--11--9---11-----------------------
-12--11--9---11----7-----------------
-10---9---7----9----7------------------
-----------------------5-------------------
Komentari
Još nema komentara