Kiss

Deuce

by: Danijel

Pronađi akord!

Ne znaš kako odsvirati neki od akorda pjesmi Deuce? Upiši akord u tražilicu i saznaj!

Traženi akord će se prikazati ovdje

Od istog izvođača

Pregledano 830 puta
Pregledano 992 puta
Pregledano 847 puta
Pregledano 1035 puta
Pregledano 928 puta
Trebaš ritam za ovu pjesmu? Pronađi ga ovdje
Intro
-----------------------------------------------------------------------------
-----------------------------------------------------------------------------
------14--14-------14------14-----------10--------12-------------------------
------14--14---16--14--16--14--0--10----10--12----12---14^12-----------------
------0---0--------------------0--10^12-----12^14------------14--------------
----------------------------------------------------------------------------





-----------------------------------------------------------------------------
-----------------------------------------------------------------------------
---14-14----14----14-----------10--------------------------------------------
---14-14-16-14-16-14--0--10----10--------------------------------------------
---0--0---------------0--10^12-----------------------------------------------
----------------------------------------------------------------------------





Riff A x4
-----------------------------------------------------------------------------
----------------5-------5---5-5----------------------------------------------
------------5 5 5-7-5 5 5---5-5--7-5---------------------------------------
----5-7-7-7-----5-7-----5---5----7-5---7--5--------------------------------
----5-7-7-7----------------------------7--5----------------------------------
----------------------------------------------------------------------------


1st verse
---5---------------------------------------------------5---------------------
---5--5-7----------------------------------------------5-5-7-5-2-------------
---5--5-7----------------------------------------------5-5-7-5-2-------------
---7--5-7----------------------------------------------7-5-7-5-2-------------
---7--3-5----------------------------------------------7-3-5-3-0------------
---5---------------------------------------------------5--------------------
pay twice followed by riff A each timethen |


Chorus(guitar 1)
------------------------------1--3-3--3--------------------------------------
------------------------------1--3-3--3--------------------------------------
------------------------------2--4-4--4--------------------------------------
------------------------------3--5-5--5--------------------------------------
---3-----345------3-345-------3--5-5--5-------------------------------------
------------345 0------345 0--1--3-3--3-------------------------------------


chorus(guitar2)
---------------------------------1-3-3-3-------------------------------------
---------------------------------1-3-3-3-------------------------------------
---------------------------------2-4-4-4-------------------------------------
--------------------5-567--------3-5-5-5-------------------------------------
------3--345-------------567-0---3-5-5-5-------------------------------------
------------345 0----------------1-3-3-3------------------------------------

play 4 bars of riffa then guitar one plays verse 1 but guitar two plays

-----------------------------------------------------------------------------
--------------------------8-8-8-8-8-8-8-8-----8-8-8-8-8-8-8-8----------------
----------------------7/9------------------7/9------------------------------
------------2-4-5-----------------------------------------------------------
--0---10\-------------------------------------------------------------------
----------------------------------------------------------------------------
play this twice followed by


-----------------------------------------------------------------------------
----------------------2------------------------------------------------------
----------------------2------------------------------------------------------
----------------2-4-5-2------------------------------------------------------
----0------10\--------0-----------------12\----------------------------------
----------------------------------------------------------------------------


for the solo a minor pent first half a major pent second
Rhythm plays riff a x8
(second intro)
-----------------------------------------------------------------------------
-----------------------------------------------------------------------------
----14-14----14----14--------10--12----12-------12---------------------------
----14-14-16-14-16-14-0-10---10--12^14-12-12----12---------------------------
----0--0--------------0-10^12-------------12^14------------------------------
----------------------------------------------------------------------------

-----------------------------------------------------------------------------
-----------------------------------------------------------------------------
-----14-14----14----14---------10--------------------------------------------
-----14-14-16-14-16-14-0-10----10--------------------------------------------
-----0--0--------------0-10^12-----------------------------------------------
----------------------------------------------------------------------------
Komentari
Još nema komentara