Kiss

Aint Quite Right

by: Danijel

Pronađi akord!

Ne znaš kako odsvirati neki od akorda pjesmi Aint Quite Right? Upiši akord u tražilicu i saznaj!

Traženi akord će se prikazati ovdje

Od istog izvođača

Pregledano 1115 puta
Pregledano 1134 puta
Pregledano 851 puta
Pregledano 1088 puta
Pregledano 878 puta
Trebaš ritam za ovu pjesmu? Pronađi ga ovdje
Rhythm [Fig. 1a] (clean electric)
Intro repeat 4x

Eb|----------------------------------------------|
Bb|-----10----8----------------------------------|
Gb|------9----7----------------------------------|
Db|--7-------------------------------------------|
Ab|----------------------------------------------|
Eb|----------------------------------------------|

[Fig.1a 4x first lyric ]
You were standin' and I was thinkin'
Of all the time that I spend hangin' around
Situation --
[Fig. 1b]
Eb|----------------------------------------------|
Bb|----------------7--------5--------------------|
Gb|----------------7--------5--------------------|
Db|----------------7--------5--------------------|
Ab|----------------------------------------------|
Eb|----------------------------------------------|
could only get better
I got closer to see what I ((( Open A string ))) found

[Fig. 2a bridge]
Eb|-------------------------------------------------|
Bb|-------------------------------------------------|
Gb|--5------4----------7-7------9------5------------|
Db|--5------4----------7-7------9------5------------|
Ab|--3------2----------5-5------7------3------------|
Eb|-------------------------------------------------|

[Fig 2b] ( *variation of fig 1a played on 12 string with 1a ... sounds just as good on
six string ... or play 1a)

Eb|-----8-----7-------------2-----0---|
Bb|-----10----8-------------3-----1---|
Gb|-----9-----7-------------2-----0---|
Db|-0-----------------------0-----2---|
Ab|-------------------------------3---|
Eb|-----------------------------------|

In the mornin', movin' easy
Everything seems so right
But when the night comes,(((D))) I've been dreamin' (((C)))
Dreamin' 'bout leavin' you one more time

Girl, you gave me good love
But it ain't quite right>>

[Fig 3a chorus]
Eb|-------------------------------------------------|
Bb|-------------------------------------------------|
Gb|--5-----------------9-9--------7-----------------|
Db|--5------5----------9-9--------7-----------------|
Ab|--3------5----------7-7--------5-----------------|
Eb|---------3---------------------------------------|
(pause) Then play this as a pseudo bass line fill>>

[Fig. 3b bass fill for guitar]
Eb|----------------------------------------------|
Bb|----------------------------------------------|
Gb|----------------------------------------------|
Db|----------------------------------------------|
Ab|----O-6-7-8---6-7-----------------------------|
Eb|----------------------------------------------|

[Fig 2b or 1a]
Mmm, no, I won't tell you
That you're the only one for me
And I'd be a liar if I promised
I could give you every single thing you ever need

[Fig. 3a]
You gave me good love
But it ain't quite right....
[Fig. 4a fill x2]

Eb|----------------------------------------------|
Bb|----13\---------------------------------------|
Gb|----14\---12----------------------------------|
Db|----------12----------------------------------|
Ab|----------------------------------------------|
Eb|----------------------------------------------|

[Fig. 3a]
Yeah, you gave me good love
But it ain't quite right, mmm

[Fig. 3b bass fill for guitar]
[Fig. 2b or 1a x2]

Solo (not transcribed)

Lookin' back now seems so easy
You were the best thing ever happened to me
I can't complain
It was worth every minute we had

'Cause, you gave me good love
But it ain't quite right

Yeah, you gave me good love
But it ain't quite riiiiiiiiiight ...

(outro solo not tanscribed)
Komentari
Još nema komentara