Kiss

2000 Man

by: Danijel

Pronađi akord!

Ne znaš kako odsvirati neki od akorda pjesmi 2000 Man? Upiši akord u tražilicu i saznaj!

Traženi akord će se prikazati ovdje

Od istog izvođača

Pregledano 823 puta
Pregledano 935 puta
Pregledano 1069 puta
Pregledano 869 puta
Pregledano 1176 puta
Trebaš ritam za ovu pjesmu? Pronađi ga ovdje
Chord Shapes

A5 B5 D5 E5 (Ride All Chords As Per Recording)
Eb|----------------------------------------------------|
Bb|----------------------------------------------------|
Gb|---------5--9---------------------------------------|
Db|---7--9--5--9---------------------------------------|
Ab|---7--9--7--7---------------------------------------|
Eb|---5--7-----0---------------------------------------|





Intro A5 E5 A5 - A5 E5 A5 - D5 A5 D5 A5 - D5 A5 E5

A5
Well, my name it is a number
E5 A5
It's on a piece of plastic film
A5
And I've been growin' funny flowers
E5 A5
Outside on my little window sill
D5 A5 D5 A5
And don't you know I'm a 2,000 man
D5 A5 E5
And my kids, they just don't understand me at all


A5
You know, my wife still respects me
E5 A5
Even though I really misuse her
A5
I am having an affair
E5 A5
With the Random computer

D5 A5 D5 A5
But don't you know I'm a 2,000 man
D5 A5 E5
And my kids, they just don't understand me at all

A5 D5 A5 E5 D5 A5
Oh daddy, proud of your planet
A5 D5 A5 E5 D5 A5
Oh mommy, proud of your sun
A5 D5 A5 E5 D5 A5
Oh daddy, proud of your planet
A5 D5 A5 E5 D5 A5
Oh mommy. proud of your sun

D5
Oh daddy, your brain's still flashin'
B5
Like they did when you were young
A5 D5 D5 A5
Or did they come down crashin'
E5 B5 E5
Seeing all the things you'd done
E5 B5 E5
Spacin' out and havin' fun


A5 D5 A5 E5 D5 A5
Oh daddy, proud of your planet
A5 D5 A5 E5 D5 A5
Oh mommy, proud of your sun
A5 D5 A5 E5 D5 A5
Oh daddy, proud of your planet
A5 D5 A5 E5 D5 A5
Oh mommy. proud of your sun

E5 (ride) [Before Solo]
Solo 1(Rhythm Under Solo A5 - E5 - D5)
Eb|-------5-5-----|----5-5-------5-----5-5--------5----|
Bb|-------5-5-5---|----5-5-------5-----5-5--------5----|
Gb|----7b^----7b^-|-7b^-----7b------7b^-----7b^--------|
Db|---------------|------------------------------------|
Ab|---------------|------------------------------------|
Eb|---------------|------------------------------------|


Eb|-------5-5----5-5-----5-5----5-5--------------------|
Bb|-------5-5----5-5-----5-5----5-5---5---5---5--------|
Gb|---7b^-----7b^-----7b^----7b^----6---7---8---9-7~~~-|
Db|----------------------------------------------------|
Ab|----------------------------------------------------|
Eb|----------------------------------------------------|

D5
Oh daddy, your brain's still flashin'
B5
Like they did when you were young
A5 D5 D5 A5
Or did they come down crashin'
E5 B5 E5
Seeing all the things you'd done
E5 B5 E5
Spacin' out and havin' fun

D5 A5 D5 A5
And don't you know I'm a 2,000 man
D5 A5 E5
And my kids, they just don't understand me at all

D5 A5 D5 A5
And don't you know I'm a 2,000 man
D5 A5 E5
And my kids, they just don't understand me at all

E5 (As Per Recording)
Understand me, u-understand me, u-understand me, now understand me
D5 E5 D5 A5 D5 A5
And don't you know I'm a 2,000 man
D5 A5 E5
And my kids, they just don't understand me at all

D5 E5 D5 A5 D5 A5
And don't you know I'm a 2,000 man
D5 A5 E5
And my kids, they just don't understand me at all

Solo 2 (Rhythm Under Solo - A5 - D5 - E5 -D5)
Eb|------5-5---|-------10-10---|------12-12------------|
Bb|------5-5---|-------10-10---|------12-12------------|
Gb|---7b^------|--12b^---------|--14b^-----------------|
Db|------------|---------------|-----------------------|
Ab|------------|---------------|-----------------------|
Eb|------------|---------------|-----------------------|



Eb|-------12--12---------------------------------------|
Bb|-------12--12---------------------------------------|
Gb|--10b^----------------------------------------------|
Db|----------------------------------------------------|
Ab|----------------------------------------------------|
Eb|----------------------------------------------------|


A5 D5 A5 (Before End)

D5 A5 D5 A5
I'm a 2,000 man,
D5 A5 D5 A5
I'm a 2,000 man
D5 A5 D5 A5
I'm a 2,000 man,
D5 A5 A5

I'm a 2,000 man, yeah, 2,000
Komentari
Još nema komentara