Guns N Roses

Sekac

by: Danijel

Pronađi akord!

Ne znaš kako odsvirati neki od akorda pjesmi Sekac? Upiši akord u tražilicu i saznaj!

Traženi akord će se prikazati ovdje

Od istog izvođača

Pregledano 20655 puta
Pregledano 3514 puta
Pregledano 1741 puta
Pregledano 2093 puta
Pregledano 2494 puta
Trebaš ritam za ovu pjesmu? Pronađi ga ovdje
VERSION 1

|-----------------------------------------------------------------------|
|-----------------------------------------------------------------------|
|-------16fb~~----------------------------------------------------------|
|-------------------18fb-(18)-16-18~~---(18)-h19-p18-p16----------------|
|---16----------------------------------------------------17b-----(16)--|
|-----------------------------------------------------------------------|

|-----------------------------------------------------------------------|
|-----------------------------------------------------------------------|
|-------16fb~~----------------------------------------------------------|
|-------------------18fb-(18)-16-18^----(18)-h19-p18-p16----------------|
|--16-----------------------------------------------------17b-----(16)--|
|-----------------------------------------------------------------------|

|-----------------------------------------------------------------------|
|-----18fb-18-18fb-18-p16-16fb-16---------------------------------------|
|----------------------------------h18----------------------------------|
|--------------------------------------h19-p18-----h19-p18-p16----------|
|-(16)-----------------------------------------------------------17hb---|
|-----------------------------------------------------------------------|

|-----------------------------------------------------------------------|
|-----------------------------------------------------------------------|
|-----------------------------------------------------------------------|
|--13-13fb-13--h15----s18~---13fb~~~-13~~-13fb------------11-13-11------|
|-----------------------------------------------------h13---------------|
|-----------------------------------------------------------------------|

h: Hammer on
p: Pull-off
b: bend
s: slide to
~: Vibrato

Just play it. (Nike?...) For commentaries and (That'd be cool)
improvements, my E-mail address is (ta ta ta taaaaaa): skyeater@aol.com

Here are the chords:

Intro: G C D G C Cm G Cm Am D
(G Em Am Cm G Em G C Am D)

G Cm D
I don't have plans and schemes
G Cm D
And I don't have hopes and dreams
G Cm Am
I don't have anything since
D
I don't have you
G Cm D
And I don't have found desires and
G Cm D
I don't have happy hours
G Cm Am
I don't have anything since
D
I don't, I don't have you
D
I don't have happiness and
Am G
I guess I never will again
Am G
When you were not on me, in walked on misery
Am D
And it's been here since then
yeah
(G Cm Am D)
Yeah you're fall
G Cm
I don't have letters, yeah
D
And I don't have one who cares
G Cm Am
I don't have anything since
D
I don't have you
(G Em Am D)
You, you, oh oh oh



VERSION 2

Intro:
|---------------------------------------------------------------------|
|---------------------------------------------------------------------|
|----19--21b--19--21-19h21p19p17\15----19--21b--19--21-19h21p19p17\15-|
|---------------------------------------------------------------------|
|-17--------------------------------17--------------------------------|
|---------------------------------------------------------------------|

|-------------------------------------------------------------------|
|-19/\/\/\-17-19-17h19p17\15----------------------------------------|
|----------------------------21/\/\-19-21b-19h21p19p17\15-----------|
|--------------------------------------------------------15--h17p15-|
|-------------------------------------------------------------------|
|-------------------------------------------------------------------|

|---------------------------------------|
|---------------------------------------|
|---------------------------------------|
|----15--17/19\17--15-------------------|
|------------------------19--17---15\---|
|---------------------------------------|

A D
I dont have pleasent scenes and

A D
I dont have hopes and dreams

A D B E
I dont have anything since I dont have you and

A D
I dont have fun desires and

A D
I dont have happy hours

A D B E
I dont have anything since I dont have you

B A
Happiness and I guess I never will again

B
When you walked out on me

A
You brought on misery and

B E
Its been here since then

Yeah were f*cked

Solo:
|-------------------------------------------------------------------|
|-------------------------------------------------------------------|
|--19--21b--19-21--19h21p19p17\15----19-21b--19--21--19h21p19p17\15-|
|-------------------------------------------------------------------|
|17--------------------------------17-------------------------------|
|-------------------------------------------------------------------|

|-------------------------------------------------------------------|
|-19/\/\/\-17-19-17h19p17\15----------------------------------------|
|---------------------------21/\/\-19-21b-19h21p19p17\15------------|
|-------------------------------------------------------15--h17p15--|
|-------------------------------------------------------------------|
|-------------------------------------------------------------------|

|------------------------------------------------------------|
|------------------------------------------------------------|
|------------------------------------------------------------|
|--15--17/19----21-21-21----19-19-19--17b-15-----------------|
|--------------------------------------------------19--17----|
|------------------------------------------------------------|

A D
I dont have love to share and

A D
I dont have one who cares

A D B E E E E E E E E
Idont have anything since I dont have you

|----------------------------------------------|
|----------------------------------------------|
|--------2-------------------------------------| Repeat
|-2---2----4-4--2----------2---2/4--2-2/4------| 5x
|-0-------------0----------0-------------------|
|----------------------------------------------|
You You You ahh ahh

|-------------------------------
|-------------------------------
|-------------------------------
|--2----2-----------------------
|--0----0-----------------------
|-------------------------------
You You ahh yeeeeeeeeeeeeeeah

The chords are:

A: x022xx
B: x2444x
D: x5777x
E: x7999x
Komentari
Još nema komentara