Guns N Roses

New Rose

by: Danijel

Pronađi akord!

Ne znaš kako odsvirati neki od akorda pjesmi New Rose? Upiši akord u tražilicu i saznaj!

Traženi akord će se prikazati ovdje

Od istog izvođača

Pregledano 3732 puta
Pregledano 8728 puta
Pregledano 1276 puta
Pregledano 2819 puta
Pregledano 1872 puta
Trebaš ritam za ovu pjesmu? Pronađi ga ovdje
Heres a song from The Spaghetti Incident? album.....its a cool song..
hope al you guys like it.....by the way the name of the chord were given
at random........

Tab Notation
A/B Play chord A slide up to chord B
A\B Play chord A slide down to chord B
19B/\/\ Strike note then bend up and down several times
X Muted string


Is she really going out with him
Intro (Riff 1)
A B C D
e------------------------------------------
b------------------------------------------
g--X-X--7--4-4--9-9------------------------ Repeat
d--X-X--7--4-4--9-9-7-7-------------------- 5X
a--X-X--5--2-2--7-7-7-7--------------------
e-------------------5-5--------------------

Riff 2
e--------------------------------------------------
b--------------------------------------------------
g-------------------------------------------------- Repeat
d-10/12\10-10-10--10-10-10\9/10-10-10-10\9/10-10-10 2x
a--8/10\8---8--8---8--8--8\7/8---8--8--8\7/8---8--8
e--------------------------------------------------

A A\B
Ive got a feeling inside of me
B B/A
Its gotta stay its gotta some way stay
A A\B
I dont know why I dont know why
B B/A
Special things shes got for me

Riff 2
Ive got a new rose Ive got a gun
Riff 2
Yeah I knew that I always would
Riff 2
I cant stop to mess around
Riff 2
Ive got a brand new rose in town

A A\B
See the sun see the sun n the sky
B B/A
Forget the rose and the_______ rides
A A\B
Dont you run away that way
B B/A
Im comming back another day

Riff 2
Ive got a new rose Ive got a gun
Riff 2
Yeah I knew that I always would
Riff 2
I cant stop to mess around
Riff 2
Ive got a brand new rose in town

e------------------------------------------
b------------------------------------------
g--X-X--7--4-4--9-9------------------------ Repeat
d--X-X--7--4-4--9-9-7-7-------------------- 5X
a--X-X--5--2-2--7-7-7-7--------------------
e-------------------5-5--------------------

e--------------------------------------------------
b--------------------------------------------------
g-------------------------------------------------- Repeat
d-10/12\10-10-10--10-10-10\9/10-10-10-10\9/10-10-10 2x
a--8/10\8---8--8---8--8--8\7/8---8--8--8\7/8---8--8
e--------------------------------------------------

In this next part play chord B, right after the lyrics end play what is
tabbed below the lyric line.......

B
I never thought this would happen to me
e-------------------------------------------
b-------------------------------------------
g--------------------------------------19B/\/\/\/\
d-------------------------------------------
a-------------------------------------------
e-------------------------------------------

B
On the same_______ machine
e-----------------------------------------
b-----------------------------------------
g-------------------------19B/\/\/\/\21
d-----------------------------------------
a-----------------------------------------
e-----------------------------------------

B Repeat 2x----------]
I never serve sombody in the same
e---------------------------------
b------------------------------17B(17)-15-17-15-17-15
g---------------------------------
d---------------------------------
a---------------------------------
e---------------------------------

B
I never never never be too late
e-----------------------------------------
b------------------------------17B(17)-15-17-15-17-19B
g------------------------------------------
d------------------------------------------
a------------------------------------------
e------------------------------------------

e------------------------------------------
b------------------------------------------
g--X-X--7--4-4--9-9------------------------ Repeat
d--X-X--7--4-4--9-9-7-7-------------------- 5X
a--X-X--5--2-2--7-7-7-7--------------------
e-------------------5-5--------------------

A A\B
Ive got a feeling inside of me
B B/A
Its gotta stay its gotta some way stay
A A\B
I dont know why I dont know why
B B/A
Special things shes got for me

Riff 2
Ive got a new rose Ive got a gun
Riff 2
Yeah I knew that I always would
Riff 2
I cant stop to mess around
Riff 2
Ive got a brand new rose in town

e--------------------------------------------------
b--------------------------------------------------
g-------------------------------------------------- Repeat
d-10/12\10-10-10--10-10-10\9/10-10-10-10\9/10-10-10 Several
a--8/10\8---8--8---8--8--8\7/8---8--8--8\7/8---8--8 X
e--------------------------------------------------

e--------
b--------
g-------- The
d-9-7-7-- End
a-9-7-7--
e-7-5-5--
Komentari
Još nema komentara