Tokio Hotel

Through The Monsoon

by: anakonda

Pronađi akord!

Ne znaš kako odsvirati neki od akorda pjesmi Through The Monsoon? Upiši akord u tražilicu i saznaj!

Traženi akord će se prikazati ovdje

Od istog izvođača

Pregledano 1093 puta
Pregledano 2314 puta
Pregledano 1200 puta
Pregledano 1576 puta
Pregledano 1422 puta
Trebaš ritam za ovu pjesmu? Pronađi ga ovdje
Through The Monsoon by Tokio Hotel


Akordi/Tabovi:
Lead guitar, standard tuning

Verse 1
e|-----------------------|-----------------------|
B|-----------------------|-----------------------|
G|-----------------------|-----------------------| x5
D|--5----5--6----6--5\---|--1----1--2----2--1----|
A|--6----6--6----6--6\---|--2----2--2----2--2----|
E|-----------------------|-----------------------|

e|-----------------------|-----------------------|
B|-----------------------|-----------------------|
G|-----------------------|-(0)--(0)(0)--(0)(0)---|
D|--6----6--6----6--6----|-(0)--(0)(0)--(0)(0)---|
A|--6----6--6----6--6----|--1----1--1----1--1----|
E|--4----4--4----4--4----|--2----2--2----2--2----|


e|-----------------------|-----------------------|
B|-----------------------|-----------------------|
G|-----------------------|-----------------------| x3
D|--5----5--6----6--5\---|--1----1--2----2--1----|
A|--6----6--6----6--6\---|--2----2--2----2--2----|
E|-----------------------|-----------------------|

e|-----------------------|-----------------------|
B|-----------------------|-----------------------|
G|-----------------------|-(0)--(0)(0)--(0)(0)---|
D|--6----6--6----6--6----|-(0)--(0)(0)--(0)(0)---|
A|--6----6--6----6--6----|--1----1--1----1--1----|
E|--4----4--4----4--4----|--2----2--2----2--2----|


Chorus 1
e|--2--------2--------2-----|--1--------1--------1-----|--2--------2--------2-----|
B|-----4--------4--------4--|-----2--------2--------2--|-----4--------4--------4--|
G|--------4--------4--------|--------1--------1--------|--------3--------3--------|
D|--------------------------|--------------------------|--------------------------|
A|--------------------------|--------------------------|--------------------------|
E|--------------------------|--------------------------|--------------------------|

e|--------------------------|--2--------2--------2-----|--1--------1--------1-----|
B|--6--------6--------6-----|-----4--------4--------4--|-----2--------2--------2--|
G|-----6--------6--------6--|--------4--------4--------|--------1--------1--------|
D|--------8--------8--------|--------------------------|--------------------------|
A|--------------------------|--------------------------|--------------------------|
E|--------------------------|--------------------------|--------------------------|

e|--------------------------|--2--------2--------2-----|
B|--6--------6--------6-----|-----4--------4--------4--|
G|-----6--------6--------6--|--------3--------3--------|
D|--------8--------8--------|--------------------------|
A|--------------------------|--------------------------|
E|--------------------------|--------------------------|

e|--2--------2--------2-----|--1~~~----------------|
B|-----4--------4--------4--|--2~~~----------------|
G|--------4--------4--------|--1~~~----------------|
D|--------------------------|----------------------|
A|--------------------------|----------------------|
E|--------------------------|----------------------|


Verse 2
e|-----------------------|-----------------------|
B|-----------------------|-----------------------|
G|-----------------------|-----------------------| x5
D|--5----5--6----6--5\---|--1----1--2----2--1----|
A|--6----6--6----6--6\---|--2----2--2----2--2----|
E|-----------------------|-----------------------|

e|-----------------------|-----------------------|
B|-----------------------|-----------------------|
G|-----------------------|-(0)--(0)(0)--(0)(0)---|
D|--6----6--6----6--6----|-(0)--(0)(0)--(0)(0)----|
A|--6----6--6----6--6----|--1----1--1----1--1----|
E|--4----4--4----4--4----|--2----2--2----2--2----|


e|-----------------------|-----------------------|
B|-----------------------|-----------------------|
G|-----------------------|-----------------------| x3
D|--5----5--6----6--5\---|--1----1--2----2--1----|
A|--6----6--6----6--6\---|--2----2--2----2--2----|
E|-----------------------|-----------------------|

e|-----------------------|-----------------------|
B|-----------------------|-----------------------|
G|-----------------------|-(0)--(0)(0)--(0)(0)---|
D|--6----6--6----6--6----|-(0)--(0)(0)--(0)(0)---|
A|--6----6--6----6--6----|--1----1--1----1--1----|
E|--4----4--4----4--4----|--2----2--2----2--2----|


Chorus 2
e|--2--------2--------2-----|--1--------1--------1-----|--2--------2--------2-----|
B|-----4--------4--------4--|-----2--------2--------2--|-----4--------4--------4--|
G|--------4--------4--------|--------1--------1--------|--------3--------3--------|
D|--------------------------|--------------------------|--------------------------|
A|--------------------------|--------------------------|--------------------------|
E|--------------------------|--------------------------|--------------------------|

e|--------------------------|--2--------2--------2-----|--1--------1--------1-----|
B|--6--------6--------6-----|-----4--------4--------4--|-----2--------2--------2--|
G|-----6--------6--------6--|--------4--------4--------|--------1--------1--------|
D|--------8--------8--------|--------------------------|--------------------------|
A|--------------------------|--------------------------|--------------------------|
E|--------------------------|--------------------------|--------------------------|

e|--------------------------|--2--------2--------2-----|
B|--6--------6--------6-----|-----4--------4--------4--|
G|-----6--------6--------6--|--------3--------3--------|
D|--------8--------8--------|--------------------------|
A|--------------------------|--------------------------|
E|--------------------------|--------------------------|

(Here Tom starts using full overdrive and power chords on the second
take of the track, but you should keep playing the lead guitar chorus)

e|--2--------2--------2-----|--1--------1--------1-----|--2--------2--------2-----|
B|-----4--------4--------4--|-----2--------2--------2--|-----4--------4--------4--|
G|--------4--------4--------|--------1--------1--------|--------3--------3--------|
D|--------------------------|--------------------------|--------------------------|
A|--------------------------|--------------------------|--------------------------|
E|--------------------------|--------------------------|--------------------------|

e|--------------------------|--2--------2--------2-----|--1--------1--------1-----|
B|--6--------6--------6-----|-----4--------4--------4--|-----2--------2--------2--|
G|-----6--------6--------6--|--------4--------4--------|--------1--------1--------|
D|--------8--------8--------|--------------------------|--------------------------|
A|--------------------------|--------------------------|--------------------------|
E|--------------------------|--------------------------|--------------------------|


Bridge
(Bill Kaulitz screams "Hey!")

e|--------------------------|--------------------------|
B|--------------------------|--------------------------|
G|--------------------------|--------------------------| x6
D|--6--6--6--5--5--5--x--x--|--2--2--2--1--1--1--x--x--|
A|--6--6--6--6--6--6--x--x--|--2--2--2--2--2--2--x--x--|
E|--------------------------|--------------------------|

e|----------------------|
B|----------------------|
G|----------------------|
D|--1~~~----------------|
A|--1~~~----------------|
E|--0~~~----------------|

e|--11------13----11------|----------------------|
B|------------------------|--12~~~---------------|
G|------------------------|----------------------| x3
D|------------------------|----------------------|
A|------------------------|----------------------|
E|------------------------|----------------------|

e|--11~~~-----------------|
B|------------------------|
G|------------------------|
D|------------------------|
A|------------------------|
E|------------------------|


Verse 3

e|--------------------------|--------------------------|--------------------------|
B|--------------------------|--------------------------|--------------------------|
G|--------------------------|--------------------------|--------------------------|
D|--------------------------|--4--4--4--4--4--4--4--4--|--6--6--6--6--6--6--6--6--|
A|--------------------------|--2--2--2--2--2--2--2--2--|--4--4--4--4--4--4--4--4--|
E|--------------------------|--2--2--2--2--2--2--2--2--|--4--4--4--4--4--4--4--4--|

e|--------------------------|--------------------------|--------------------------|
B|--------------------------|--------------------------|--------------------------|
G|--------------------------|--------------------------|--4--4--4--4--4--4--4--4--|
D|--8--8--8--8--8--8--8--8--|--8--8--8--8--8--8--8--8--|--4--4--4--4--4--4--4--4--|
A|--6--6--6--6--6--6--6--6--|--8--8--8--8--8--8--8--8--|--2--2--2--2--2--2--2--2--|
E|--6--6--6--6--6--6--6--6--|--6--6--6--6--6--6--6--6--|--2--2--2--2--2--2--2--2--|

e|--------------------------|--------------------------|--------------------------|
B|--------------------------|--------------------------|--------------------------|
G|--6--6--6--6--6--6--6--6--|--------------------------|--8--8--8--8--8--8--8--8--|
D|--6--6--6--6--6--6--6--6--|--8--8--8--8--8--8--8--8--|--8--8--8--8--8--8--8--8--|
A|--4--4--4--4--4--4--4--4--|--8--8--8--8--8--8--8--8--|--6--6--6--6--6--6--6--6--|
E|--4--4--4--4--4--4--4--4--|--6--6--6--6--6--6--6--6--|--6--6--6--6--6--6--6--6--|

e|--------------------------|--------------------------|--------------------------|
B|--------------------------|--------------------------|--------------------------|
G|--4--4--4--4--4--4--4--4--|--6--6--6--6--6--6--6--6--|--8--8--8--8--8--8--8--8--|
D|--4--4--4--4--4--4--4--4--|--6--6--6--6--6--6--6--6--|--8--8--8--8--8--8--8--8--|
A|--2--2--2--2--2--2--2--2--|--4--4--4--4--4--4--4--4--|--6--6--6--6--6--6--6--6--|
E|--2--2--2--2--2--2--2--2--|--4--4--4--4--4--4--4--4--|--6--6--6--6--6--6--6--6--|

e|--------------------------|--------------------------|--------------------------|
B|--------------------------|--------------------------|--------------------------|
G|--------------------------|--4--4--4--4--4--4--4--4--|--6--6--6--6--6--6--6--6--|
D|--8--8--8--8--8--8--8--8--|--4--4--4--4--4--4--4--4--|--6--6--6--6--6--6--6--6--|
A|--8--8--8--8--8--8--8--8--|--2--2--2--2--2--2--2--2--|--4--4--4--4--4--4--4--4--|
E|--6--6--6--6--6--6--6--6--|--2--2--2--2--2--2--2--2--|--4--4--4--4--4--4--4--4--|


Ending

e|-----------------------|-----------------------|
B|-----------------------|-----------------------|
G|-----------------------|-----------------------| x3
D|--5----5--6----6--5\---|--1----1--2----2--1----|
A|--6----6--6----6--6\---|--2----2--2----2--2----|
E|-----------------------|-----------------------|

e|-----------------------|--------------------------|
B|-----------------------|--------------------------|
G|-----------------------|-(0)(0)---(0)---(0)(0)~~--|
D|--5----5--6----6--5\---|--1--1-----1-----1--1~~~--|
A|--6----6--6----6--6\---|--2--2-----2-----2--2~~~--|
E|-----------------------|--------------------------|
Komentari
Još nema komentara