Tokio Hotel

Ready Set Go

by: anakonda

Pronađi akord!

Ne znaš kako odsvirati neki od akorda pjesmi Ready Set Go? Upiši akord u tražilicu i saznaj!

Traženi akord će se prikazati ovdje

Od istog izvođača

Pregledano 11464 puta
Pregledano 1063 puta
Pregledano 1092 puta
Pregledano 2373 puta
Pregledano 1018 puta
Trebaš ritam za ovu pjesmu? Pronađi ga ovdje
Ready Set Go by Tokio Hotel


Akordi/Tabovi:
|---------|------------|
|---------|------------|
|-4-----5-|-4-----5----|
|-2--4--5-|-2--4--5----|(strum each chord 3x)
|----2--3-|----2--3----|
|---------|------------|

VERSE:



|---------|------------|------------|------|
|---------|------------|------------|------|
|-2-----5-|-2-----5----|-4-----5----|------|
|-4--4--5-|-4--4--5----|-2--4--5----|-2--3-|
|----2--3-|----2--3----|----2--3----|-2--3-|
|---------|------------|------------|-2--3-|


|---------|------------|------------|------|
|---------|------------|------------|------|
|-2-----5-|-2-----5----|-4-----5----|------|
|-4--4--5-|-4--4--5----|-2--4--5----|-2--3-|
|----2--3-|----2--3----|----2--3----|-2--3-|
|---------|------------|------------|-2--3-|


|-----------|
|-----------|
|-----------|
|-3--5--2-2-|(softly)
|-3--5--2-2-|
|-3--5--2-2-| x2

CHORUS:

(Ready, Set, GO! It's time to run)
|------------|------------|-------------|---------|
|------------|------------|-------------|---------|
|-7--9--5----|-7--9--7--9-|-9-9--5-7--9-|-5--7--4-|
|-7--9--5--5-|-7--9--7--9-|-9-9--5-7--9-|-5--7--4-|
|-5--7--3--5-|-5--7--5--7-|-7-7--3-5--7-|-3--5--2-|
|----------5-|----------0-|-------------|---------|

PRE-VERSE:



|----------|
|-10--7--8-|
|-7---4--5-|
|----------|
|----------|
|----------| x2

VERSE:



|---------|------------|------------|------|
|---------|------------|------------|------|
|-4-----5-|-4-----5----|-4-----5----|------|
|-2--4--5-|-2--4--5----|-2--4--5----|-2--3-|
|----2--3-|----2--3----|----2--3----|-2--3-|
|---------|------------|------------|-2--3-|




|---------|------------|------------|------|
|---------|------------|------------|------|
|-4-----5-|-4-----5----|-4-----5----|------|
|-2--4--5-|-2--4--5----|-2--4--5----|-2--3-|
|----2--3-|----2--3----|----2--3----|-2--3-|
|---------|------------|------------|-2--3-|




|-----------|
|-----------|
|-----------|
|-3--5--2-2-|(softly)
|-3--5--2-2-|
|-3--5--2-2-| x2

CHORUS:

|------------|------------|-------------|---------|
|------------|------------|-------------|---------|
|-7--9--5----|-7--9--7--9-|-9-9--5-7--9-|-5--7--4-|
|-7--9--5--5-|-7--9--7--9-|-9-9--5-7--9-|-5--7--4-|
|-5--7--3--5-|-5--7--5--7-|-7-7--3-5--7-|-3--5--2-|
|----------5-|----------0-|-------------|---------|

Filler:

|--------------------------|
|--------------------------|
|--------------------------|
|-4-4--5-5--7-7--4-4-4-5-5-|
|-2-2--3-3--5-5--2-2-2-3-3-|
|--------------------------| (x6)



|-----------|
|-----------|
|-----------|(softly)
|-3--5--2-2-|
|-3--5--2-2-|
|-3--5--2-2-| (x3)

CHORUS:

|-------|------------|-------------|---------|
|-------|------------|-------------|---------|
|-7-7-7-|-7--9--7--9-|-9-9--5-7--9-|-5--7--4-|
|-7-7-7-|-7--9--7--9-|-9-9--5-7--9-|-5--7--4-|
|-5-5-5-|-5--7--5--7-|-7-7--3-5--7-|-3--5--2-|
|-------|----------0-|-------------|---------|

|------------|------------|-------------|---------|
|------------|------------|-------------|---------|
|-7--9--5----|-7--9--7--9-|-9-9--5-7--9-|-5--7--4-|
|-7--9--5--5-|-7--9--7--9-|-9-9--5-7--9-|-5--7--4-|
|-5--7--3--5-|-5--7--5--7-|-7-7--3-5--7-|-3--5--2-|
|----------5-|----------0-|-------------|---------|

|---------|------------|------------|
|---------|------------|------------|
|-4-----5-|-4-----5----|-4-----5----|
|-2--4--5-|-2--4--5----|-2--4--5----|
|----2--3-|----2--3----|----2--3----|
|---------|------------|------------|(6x)


Outtro:

|---------------|
|-4-4--5-5--7-7-|
|-4-4--5-5--7-7-|
|-4-4--5-5--7-7-|
|-2-2--3-3--5-5-|
|---------------|
Komentari
Još nema komentara