Tokio Hotel

Beichte

by: anakonda

Pronađi akord!

Ne znaš kako odsvirati neki od akorda pjesmi Beichte? Upiši akord u tražilicu i saznaj!

Traženi akord će se prikazati ovdje

Od istog izvođača

Pregledano 1065 puta
Pregledano 2375 puta
Pregledano 1202 puta
Pregledano 3010 puta
Pregledano 3191 puta
Trebaš ritam za ovu pjesmu? Pronađi ga ovdje
Beichte by Tokio Hotel


Akordi/Tabovi:
INTRO
E-------------------------------------|
B-------------------------------------|
G--9-9-9-9-9-9-9-9--6-6-6-6-6-6-6-6---|
D--9-9-9-9-9-9-9-9--6-6-6-6-6-6-6-6---|  x8
A--7-7-7-7-7-7-7-7--4-4-4-4-4-4-4-4---|
E-------------------------------------|


VERSE
E--------------------------------     -------------------------------------|
B--------------------------------     -------------------------------------|
G--9-9-9-9-9-9-9-9--6-6-6-6-6----     ---4-4-4-4-4-4-4-4-4-4-4-4-----------|
D--9-9-9-9-9-9-9-9--6-6-6-6-6---- x4  ---4-4-4-4-4-4-4-4-4-4-4-4-----------|
A--7-7-7-7-7-7-7-7--4-4-4-4-4----     ---2-2-2-2-2-2-2-2-2-2-2-2-----------|
E--------------------------------     -------------------------------------|
and then play it again but at the end play this:

E---------------------|
B---------------------|
G--5-5-5-5-5-5-5-5-5--|
D--5-5-5-5-5-5-5-5-5--|
A--3-3-3-3-3-3-3-3-3--|
E---------------------|

CHORUS
E---------------------------------------------|
B---------------------------------------------|
G--9-9-9-9-9--6-6-6-6-6--4-4-4-4-4------------|
D--9-9-9-9-9--6-6-6-6-6--4-4-4-4-4--7-7-7-7-7-|
A--7-7-7-7-7--4-4-4-4-4--2-2-2-2-2--7-7-7-7-7-|
E-----------------------------------4-4-4-4-4-|

E-----------------------------------|
B-----------------------------------|
G--9-9-9-9-9--6-6-6-6-6--4-4-4-4-4--|
D--9-9-9-9-9--6-6-6-6-6--4-4-4-4-4--|
A--7-7-7-7-7--4-4-4-4-4--2-2-2-2-2--|
E-----------------------------------|

VERSE
E--------------------------------     -------------------------------------|
B--------------------------------     -------------------------------------|
G--9-9-9-9-9-9-9-9--6-6-6-6-6----     ---4-4-4-4-4-4-4-4-4-4-4-4-----------|
D--9-9-9-9-9-9-9-9--6-6-6-6-6---- x4  ---4-4-4-4-4-4-4-4-4-4-4-4-----------|
A--7-7-7-7-7-7-7-7--4-4-4-4-4----     ---2-2-2-2-2-2-2-2-2-2-2-2-----------|
E--------------------------------     -------------------------------------|
and then play it again but at the end play this:

E---------------------|
B---------------------|
G--5-5-5-5-5-5-5-5-5--|
D--5-5-5-5-5-5-5-5-5--|
A--3-3-3-3-3-3-3-3-3--|
E---------------------|

CHORUS
E---------------------------------------------|
B---------------------------------------------|
G--9-9-9-9-9--6-6-6-6-6--4-4-4-4-4------------|
D--9-9-9-9-9--6-6-6-6-6--4-4-4-4-4--7-7-7-7-7-|
A--7-7-7-7-7--4-4-4-4-4--2-2-2-2-2--7-7-7-7-7-|
E-----------------------------------4-4-4-4-4-|

E-----------------------------------|
B-----------------------------------|
G--9-9-9-9-9--6-6-6-6-6--4-4-4-4-4--|
D--9-9-9-9-9--6-6-6-6-6--4-4-4-4-4--|
A--7-7-7-7-7--4-4-4-4-4--2-2-2-2-2--|
E-----------------------------------|
Play the whole chorus twice

BRIGDE
E--------------------------------------------------|
B--------------------------------------------------|
G--4-4-4-------------------------------------------|
D--4-4-4-------------------------------------------|
A--2-2-2-------------------------------------------|
E--------------------------------------------------|

listen to the song and work out how meny times you have to repet it becouse its loads of
and i cant write it all lol.
E--------------------------------------------------|
B--------------------------------------------------|
G--6-6-6-6-6--8-8-8-8-8--11-11-11-11-11-9-9-9-9-9--|
D--6-6-6-6-6--8-8-8-8-8--11-11-11-11-11-9-9-9-9-9--|
A--4-4-4-4-4--6-6-6-6-6--9--9--9--9--9--7-7-7-7-7--|
E--------------------------------------------------|

E---------------------------------------|
B---------------------------------------|
G--6-6-6-6-6--8-8-8-8-8--11-11-11-11-11-|
D--6-6-6-6-6--8-8-8-8-8--11-11-11-11-11-|
A--4-4-4-4-4--6-6-6-6-6--9--9--9--9--9--|
E---------------------------------------|

CHORUS
E---------------------------------------------|
B---------------------------------------------|
G--9-9-9-9-9--6-6-6-6-6--4-4-4-4-4------------|
D--9-9-9-9-9--6-6-6-6-6--4-4-4-4-4--7-7-7-7-7-|
A--7-7-7-7-7--4-4-4-4-4--2-2-2-2-2--7-7-7-7-7-|
E-----------------------------------4-4-4-4-4-|

E-----------------------------------|
B-----------------------------------|
G--9-9-9-9-9--6-6-6-6-6--4-4-4-4-4--|
D--9-9-9-9-9--6-6-6-6-6--4-4-4-4-4--|
A--7-7-7-7-7--4-4-4-4-4--2-2-2-2-2--|
E-----------------------------------|
Play the whole chorus 3 times
Komentari
Još nema komentara