Zabranjeno pusenje

Počasna Salva

by: blaze

Pronađi akord!

Ne znaš kako odsvirati neki od akorda pjesmi Počasna Salva? Upiši akord u tražilicu i saznaj!

Traženi akord će se prikazati ovdje

Od istog izvođača

Pregledano 6990 puta
Pregledano 21503 puta
Pregledano 30009 puta
Pregledano 10265 puta
Pregledano 44318 puta
Trebaš ritam za ovu pjesmu? Pronađi ga ovdje
Akordi/Tabovi:
-2h3p2p0h2-2h3p2p0h2-2h3p2p0-2-3-5-3-2-0-----|------------------------------
-----------------------------------------3-2-|-3-2-0-2-0-------------0-2-3-2
---------------------------------------------|-----------2-2--4-4-4---------
---------------------------------------------|------------------------------
---------------------------------------------|------------------------------
---------------------------------------------|------------------------------
dio a                                          dio b                         

-----------------|-2-2-2-2--2-5-3-2-0---------2-2-2-2-2--5p3p2--------------
-0-2-0-----------|--------------------3-2----------------------3-2----------
-------2-2-4-4-4-|----------------------------------------------------------
-----------------|----------------------------------------------------------
-----------------|----------------------------------------------------------
-----------------|----------------------------------------------------------
                   dio c                                                     
Hm

dio a + dio b (2x)

Hm
Druze, bilo je lakse sve
       D5   E5
Mi u rovu, oni u rovu, tu na puskomet
Hm
Sjecas li druze, da ne bi izdali
    D5 E5
Mi smo zadnji metak za sebe cuvali

dio c (2x)
dio b (2x)

H5 H5 H5 H5 H5 H5 D5 A5 (2x)

H5

H5 D5 A5
Druze, dok sam se budio
H5 D5 A5
Ukrali su moju mladost, moje ludilo
H5 D5 A5
Dobre su kafane, dobro se napusit'
      D5 E5
Dobri ljudi vole pricu, sto prica gubitnik

dio a + dio b

Druze, ljudi bez muda i casti
K'o hijene se mlate oko komada vlasti
Druze, laksi su bunkeri
Nego limuzine i salteri

G     A Hm
Korak preko ograde
G        A      Hm
Je l' to druze jedino sto casno je
G    A       Hm
Zar za nas stare ratnike
G      A Hm
Pocasna salva da ne odjekne

Druze, sjene su kraj mene
Od Zeke, od Gaje i od Pisonje
Druze, sjene su kraj mene
Kazu - Marsirali smo dugo, al' zalud, cini se

Korak preko ograde
Je l' to druze jedino sto casno je
Zar za nas stare ratnike
Pocasna salva da ne odjekne

Jastreb recitira...
Komentari

zidar kaže:

super pjesma

05-09-2009 22:14

pero-pocetnik kaže:

a dobra je pjesma al jebiga nema svoj spot ovo su uzeli iz onog filma nemogu se sad sjetit kak se zove

02-12-2009 15:58

D_dur kaže:

Dobra pjesma, pa dobro su i uzeli sta ce drugo ubaciti neg iz filma NIČIJA ZEMLJA :) bar se poklapa poZzZ

12-08-2010 04:43