Pađen Band

Divljakuša

by:

Pronađi akord!

Ne znaš kako odsvirati neki od akorda pjesmi Divljakuša? Upiši akord u tražilicu i saznaj!

Traženi akord će se prikazati ovdje

Od istog izvođača

Pregledano 3988 puta
Pregledano 8267 puta
Pregledano 6491 puta
Pregledano 7532 puta
Pregledano 5829 puta
Trebaš ritam za ovu pjesmu? Pronađi ga ovdje
Akordi/Tabovi:
Intro:
|---------------------|----------------------|
|---------------------|----------------------|
|---------------------|----------------------|
|---------------------|---5/7-5----5---------|
|-7----9----7----9----|7---------7---7--5--3-|
|-5----5----5----5----|5---------------------|


Riff za ritam gitaru (palm muted):
A                    D                     E
|---------------------|----------------------|-----------
|---------------------|----------------------|-----------
|---------------------|----------------------|-----------
|---------------------|-7----9----7----9-----|-----------  itd.
|-7----9----7----9----|-5--5-5--5-5--5-5--5--|-2----4----
|-5--5-5--5-5--5-5--5-|----------------------|-0--0-0--0-


A
Tako malo zadovoljstva i opustanja
            D             A
Ti si, nesreco, meni pruzila

Samo kad te drugi nisu zvali
                     D                A
Ti si se da mi pijes krv sa mnom druzila


Refren:
E       A  E        A
Divljakuso povampirena
D
Kad si me ranila
A
Kad si me sahranila
E        A  E         A
Tek tada si bila smirena

Dala si mi mrtvo sjeme da ga uzgajam
Iluziju, takve dobro znam
Tracila si moje vrijeme, hladno gledala
Kako nestajem, kako propadam

Refren

Solo

Ti si kao drvo koje daje samo hlad
Bez plodova i bez cvjetova
Trpio sam sve dok nismo stigli konacno
Do granice dvaju svjetova

Refren
Komentari
Još nema komentara