AC/DC

Beating Around the Bush

by: anakonda

Pronađi akord!

Ne znaš kako odsvirati neki od akorda pjesmi Beating Around the Bush? Upiši akord u tražilicu i saznaj!

Traženi akord će se prikazati ovdje

Od istog izvođača

Pregledano 1386 puta
Pregledano 1873 puta
Pregledano 2338 puta
Pregledano 1052 puta
Pregledano 935 puta
Trebaš ritam za ovu pjesmu? Pronađi ga ovdje
Beating Around the Bush by AcDc

Akordi/Tabovi:
Intro
e |-------------------------------------------------------------------------|
b |-------------------------------------------------------------------------|
g |-------------------------------------------------------------------------|
d |---------------------------------0------------------------------------0--|
a |---------------------------0--2----------------------------------0--2----|
e |----------------0----2--3-----------------------------0----2--3----------|

e |-------------------------------------------------------------------------|
b |-------------------------------------------------------------------------|
g |-------------------------------------------------------------------------|
d |--------------0----------------2---2-------------0----------------2------|
a |----------0-2----2-0-----------2---2---------0-2-----2-1-0--------2------|
e |----0-2-3--------------3-0-3 --0---0----0-2-3----------------3p---0------|
x4

e |-------------------------------------------------------------------------|
b |-------------------------------------------------------------------------|
g |--------7----------------------------------------------------------------|
d |--------7---7---7--------------2----2--2---------------------------------|
a |--------5---7---7--------------2----2--2---------------------------------|
e |------------5---5----3-0-3-0---0----0--0---------------------------------|
x8

e |-------------------------------------------------------------------------|
b |-------------------------------------------------------------------------|
g |------------------------7---7---7-------2---2---2------------------------|
d |-----2---2---2----------7---7---7-------2---2---2---------------2--------|
a |-----2---2---2----------5---5---5-------0---0---0---------------2--------|
e |-----0---0---0--------------------------------------------------0--------|

e |-------------------------------------------------------------------------|
b |-------------------------------------------------------------------------|
g |-------------------------------------------------------------------------|
d |-----------------0--------------2---2------------------------------------|
a |------------0-2----2-0----------2---2------------------------------------|
e |-----0-2-3--------------3-0-3---0---0------------------------------------|

e |-------------------------------------------------------------------------|
b |-------------------------------------------------------------------------|
g |--------7----------------------------------------------------------------|
d |--------7-----7---7-----------------2------2--2--------------------------|
a |--------5-----7---7-----------------2------2--2--------------------------|
e |--------------5---5----3-0-3-0------0------0--0--------------------------|
x8

e |-------------------------------------------------------------------------|
b |-------------------------------------------------------------------------|
g |------------------------7---7---7-------2---2---2------------------------|
d |-----2---2---2----------7---7---7-------2---2---2---------------2--------|
a |-----2---2---2----------5---5---5-------0---0---0---------------2--------|
e |-----0---0---0--------------------------------------------------0--------|

e |------------------------------------------------------------------------|
b |------------------------------------------------------------------------|
g |------------------------------------------------------------------------|
d |-----------------0--------------2---2-----------------------------------|
a |------------0-2----2-0----------2---2-----------------------------------|
e |-----0-2-3--------------3-0-3---0---0-----------------------------------|
Komentari
Još nema komentara