Aerosmith

Same old song and dance

by: Rollingthing

Pronađi akord!

Ne znaš kako odsvirati neki od akorda pjesmi Same old song and dance? Upiši akord u tražilicu i saznaj!

Traženi akord će se prikazati ovdje

Od istog izvođača

Pregledano 1107 puta
Pregledano 2279 puta
Pregledano 2435 puta
Pregledano 2419 puta
Pregledano 6561 puta
Trebaš ritam za ovu pjesmu? Pronađi ga ovdje
Akordi/Tabovi:
Intro :  (Rhy. Fig.1)
  E7                           Em7          E5  4X                     
|----------------------------|-------------------|
|----------------------------|-------------------|
|----------------------------|--------------9-9--|
|--------------0--0------0---|--------------9-9--|
|-----------2---------2-----2|--------------7-7--|
|-0--0--4--------------------|--3--0-----0-------|


Verse :  (Rhy. Fig.2)
     E7                     Em7       
|-------------------------|---------------------------|
|-------------------------|---8-----------------------|
|----------------7----7---|--------7--------9---------|
|---------9------7----7---|------------7----9---------|
|---------7---------------|---------------------------|
|-------------------------|---------------------------|
  Get   yourself cool-er,    lay yourself low.  Etc.


(Rhy. Fig.2)

Coincidental murder with nothing to show. 
When the judge's constipation goes to his head,
and his wife's aggravation, you're soon enough dead.
  G5        A5      C5        D5
|------------------------------------------|   Repeat Rhy. Fig.1
|------------------------------------------|   After each chorus.
|-------------------5---5-----7----7-------|
|-5----5----7-7-----5---5-----7----7-------|
|-5----5----7-7-----3---3-----5----5-------|
|-3----3----5-5----------------------------|
Same old  story,  same old  song and dance

Bridge :(Rhy. Fig.3) B
|----------------------------------------------|  Repeat Rhy.Fig.3
|----------------------------------------------|  with rest of
|--4-----4------0----2-----4-----4-----0---2---|  bridge.
|--4-----4------0----2-----4-----4-----0---2---|
|----------------------------------------------|
|----------------------------------------------|
  Fate  comes a knocking; doors start locking....

Your old time connection, change your direction.
Ain't gonna change it, can't rearrange it.
Can't stand the pain when it's all the same to you, my friend.
   Rhy. Fig.1


     At the end, use the same chorus Rhy. but substitute
     this at the end of the chorus....

  C5       D5     F5       G5       A5                       
|-----------------------------------------|
|-----------------------------------------|
|-5---5----7-7----------------------------|
|-5---5----7-7----3----3---5---5----7-----|
|-3---3----5-5----3----3---5---5----7-----|
|-----------------1----1---3---3----5-----|
Same old story, same old song and dance.

Solo
E----------------------------------------------------------------|
B-10p8-8---------------------------------------------------------|
G-----9-9----------------------------------7---------------------|
D---------7br8-5~--7br8-5-7-5-7p5---7br8-9--5-7br8-7~-5-7p5------|
A--------------------------------7--------------------------7-7--|
E----------------------------------------------------------------|

Second solo
E---------------------------------------------------------------------------|
B-8-5-88-5-12h15b17-15br17p12----------------15b17-15b17-15p12--------------|
G-7-4-77-4-------------------12-14----12---12-----------------14-12-12------|
D----------------------------------14-12-14---------------------------14----|
A----------------------------------------14---------------------------------|
E-----------------------------------------------------------------------12/-|

|------------------------------------------------------------------------------|
|---------------------------------------------12-15br17-12------15b17-15b17----|
|-------------12-12----------12h14p13----12-14-------------12h14---------------|
|----------12-12-12----12h14----------14---------------------------------------|
|----12h14-----------12--------------------------------------------------------|
|-00----------------0----------------------------------------------------------|

|----------------------------------15-17/19-19-19~---|
|-12h15-15b17-15b17-15b17-12-15-12-------------------|
|----------------------------------------------------|
|----------------------------------------------------|
|----------------------------------------------------|
|----------------------------------------------------|

Third solo
E-17b20--15-17-15b17--------------------------------------------------------|
B--------------------17-15-17-15----------17-15---17-15--------15-----------|
G-------------------------------16-14b16~------16------16-14b16--14br16-----|
D---------------------------------------------------------------------------|
A---------------------------------------------------------------------------|
E---------------------------------------------------------------------------|

|---------------------------------------------------------------------------------|
|---------------------------------------12----12b.5-15b17-15b-15b-15b17-15br17p12-|
|-14b16-14~-12-14------12b12.5----14----------12b.5-------------------------------|
|----------------14~-14--------14----14----14-------------------------------------|
|---------------------------------------------------------------------------------|
|---------------------------------------------------------------------------------|

|--------------------------------------------------------------|
|------15-15---15-15-------------------------------------------|
|-14b16-----14b-----14br16p12-14br16p12------------------------|
|---------------------------------------14br16p12--12h14~~~----|
|------------------------------------------------14------------|
|--------------------------------------------------------------|
Komentari
Još nema komentara