Aerosmith

Back in the Saddle

by: Rollingthing

Pronađi akord!

Ne znaš kako odsvirati neki od akorda pjesmi Back in the Saddle? Upiši akord u tražilicu i saznaj!

Traženi akord će se prikazati ovdje

Od istog izvođača

Pregledano 6621 puta
Pregledano 1237 puta
Pregledano 1288 puta
Pregledano 2336 puta
Pregledano 6094 puta
Trebaš ritam za ovu pjesmu? Pronađi ga ovdje
Akordi/Tabovi:
Intro:
e|----------------|----------------|----------------|----------------|
B|----------------|----------------|----------------|----------------|
G|2p1-------------|6p5-------------|9p8-------------|6p5-------------|
D|----------------|----------------|----------------|----------------|
A|----------------|----------------|----------------|----------------|
E|----------------|----------------|----------------|----------------| x3

e|----------------|----------------|----------------|----------------|
B|----------------|----------------|----------------|----------------|
G|2p1-------------|6p5-------------|9p8-------------|8p7-----8p7-----|
D|----------------|----------------|----------------|----------------|
A|----------------|----------------|----------------|----------------|
E|----------------|----------------|----------------|----------------|

e|----------------|
B|----------------|
G|8p7-8p7-8p7-8p7-|
D|----------------|
A|----------------|
E|----------------|

Riff 1:
e|12--------------|----------------|12--------------|----------------|
B|----------------|----------------|----------------|----------------|
G|----------------|----------------|----------------|----------------|
D|----------------|----------------|----------------|----------------|
A|----------------|----------------|----------------|----------------|
E|----------------|----------------|----------------|----------------|

Riff 2:
e|----------------|----------------|
B|----------------|----------------|
G|--------------7-|--------7-7-7-7-|
D|7-7-7-77-7----7-|-7------7-7-7-7-|
A|7-7-7-77-7----5-|-7------5-5-5-5-|
E|5-5-5-55-5------|-5--------------|

Riff 3:
e|----------------|----------------|
B|----------------|----------------|
G|--------------6-|-6------6-6-6-6-|
D|6-6-6-66-6----6-|-6------6-6-6-6-|
A|6-6-6-66-6----4-|-4------4-4-4-4-|
E|4-4-4-44-4------|----------------|

Riff 4:
e|5-5-5-55-5----5-|-5--------------|
B|5-5-5-55-5----7-|-5--------------|
G|6-6-6-66-6----7-|-6------7-7-7-7-|
D|7-7-7-77-7----7-|-7------7-7-7-7-|
A|7-7-7-77-7----5-|-7------5-5-5-5-|
E|5-5-5-55-5------|-5--------------|

Riff 5:
e|----------------|----------------|
B|----------------|----------------|
G|--------------9-|-9------9-9-9-9-|
D|9-9-9-99-9----9-|-9------9-9-9-9-|
A|9-9-9-99-9----7-|-7------7-7-7-7-|
E|7-7-7-77-7------|----------------|

Riff 6:
e|----------------|----------------|5---------------|--5-5-5-5-5-5-5-|
B|----------------|----------------|7---------------|--5-5-5-5-5-5-5-|
G|7---6---6-6-6-6-|9---4---4-4-4-4-|7---------------|--6-6-6-6-6-6-6-|
D|7---7---7-7-7-7-|9---5---5-5-5-5-|7---------------|--7-7-7-7-7-7-7-|
A|----------------|----------------|5---------------|--7-7-7-7-7-7-7-|
E|----------------|----------------|----------------|--5-5-5-5-5-5-5-|

Riff 7:
e|5---5---5---5---|5---5---5---5---|
B|5---5---5---5---|5---5---5---5---|
G|6---6---6---6---|6---6---6---6---|
D|7---7---7---7---|7---7---7---7---|
A|7---7---7---7---|7---7---7---7---|
E|5---5---5---5---|5---5---5---5---|

Order:
Intro
Riff 1 x2
Riff 2 x4
Riff 3 x2
Riff 2 x2
Riff 1 x2
Riff 4 x4
Riff 5 x4
Riff 1 x2
Riff 6 x4
Riff 7
Riff 1 x2
Riff 7

| h  hammer-on
| p  pull-off
Komentari
Još nema komentara