Alice In Chains

Killer Is Me

by:

Pronađi akord!

Ne znaš kako odsvirati neki od akorda pjesmi Killer Is Me? Upiši akord u tražilicu i saznaj!

Traženi akord će se prikazati ovdje

Od istog izvođača

Pregledano 2027 puta
Pregledano 1578 puta
Pregledano 1763 puta
Pregledano 1801 puta
Pregledano 1815 puta
Trebaš ritam za ovu pjesmu? Pronađi ga ovdje
Akordi/Tabovi:
Tune Down 1/2 a step
  Play throughout the song
e|--0--0-----0---0--0--0--0--0--0--0----------------------------------------|
B|-10-10----10---6--6--6--6--6--6--6----------------------------------------|
G|-12-12------------8-----8-----8-------------------------------------------|
D|-11-11------------7-----7-----7-------------------------------------------|
A|--0--0--0---------0-----0-----0-------------------------------------------|
E|--0--0--0----0----6-----6-----6-------------------------------------------|
                    Thumb on                              harm..
e|--------0---------------------0-----------0-----------------12-------------|
B|------0-------0-----0-12harm.---0------------0-----------12----------------|
G|----6-----6----------------------------6-------6-------8-------------------|
D|--7---------7----7-------------------7-----------7---9---------------------|
A|-----------------------------------0---------------0-----------------------|
E|---------------------------------------------------------------------------|
                       harm.                         harm.
e|-------0----------------12---0-------0----------------12------------------|
B|---------0-----------12------0---------0-----------12---------------------|
G|-----6-----6-------8---------6-----6-----6-------8------------------------|
D|---7---------7---9-----------7-------------7---9--------------------------|
A|-0-------------0-------------0--0------------0----------------------------|
E|--------------------------------------------------------------------------|

During the bridge guitar 1 plays g6 and f#7 thumb chords while guitar 2 plays this

e|--------------------------------------------------------------------------|
B|------------------0--------------------0----------------------------------|
G|-------------0---------------------------0--------------------------------|
D|------3--------------3-------3------3-------3-----------------------------|
A|---2------2-----2----------2----2---2----------2--------------------------|
E|-3----------------------3-------------------------------------------------|

e|--------------------------------------------------------------------------|
B|-----------------------------------------------------0--------------------|
G|--3--------------------------3--------------------------------------------|
D|-----2-----2---------2---2------2----2------------3-----3-----3-----------|
A|--------1-----1--------1---1-------1------------2-----------2-------------|
E|----------------2--2--------------------3--3--3-----------3---------------|

e|--------------------------------------------------------------------------|
B|--------------------------------------------------------------------------|
G|--------------------------------------------------------------------------|
D|-----------3--------3--------------2-----2--------------------------------|
A|--------2-----2-----------------1-----------------------------------------|
E|--3-3-3---------3------3--2--2--------2-----2---1-------------------------|
Komentari
Još nema komentara