Alice In Chains

Dirt

by:

Pronađi akord!

Ne znaš kako odsvirati neki od akorda pjesmi Dirt? Upiši akord u tražilicu i saznaj!

Traženi akord će se prikazati ovdje

Od istog izvođača

Pregledano 1897 puta
Pregledano 1625 puta
Pregledano 1921 puta
Pregledano 2442 puta
Pregledano 3684 puta
Trebaš ritam za ovu pjesmu? Pronađi ga ovdje
Akordi/Tabovi:
down a half step (Eb,Ab...)play riff 1 four times then riff 2

riff 1                                 riff 2
------------------------------------|----------------------------------------
------------2h3--2------------------|--------2h3-----------------------------
-2h3p2-----------------2h3p2--------|2h3p2---------9-9/10-10\7-7-------------
----------------------------------5-|----------------------------------------
-------0----------------------0-----|------0-------7-7/-8--8\5-5p0-----------
------------------------------------|----------------------------------------

verse riff:

------------------------------------|-------------------------------------|--
------------------------------------|-------------------------------------|--
--------6/7\6---------------2-------|---------6/7\6/12--12/14-14/15---12--|--
-----2----------------------2----0--|-------2-----------------------------|--
0h1--0--4/5\4----0----0h1---0-------|0h1----0-4/5\4/10--10/12-12/13---10--|--
---------------------------------3--|-------------------------------------|


--------------------------------------\------------------------------------|-
--------------------------------------|------------------------------------|-
-----------6/7\6---------------2------|---------6/7\6----9--9/10-10\7--7---|-
-------2-----------------------2---0--|-----2------------------------------|-
--0h1--0---4/5\4---0---0h1-----0------|0h1--0---4/5\4----7--7/-8--8\5--5p0-|-
-----------------------------------3--|------------------------------------|-

for the chorus I just have time to put up the chords if you need the notes
let me know.


A5       Bb5    Cadd9          A5       Bb5      C7           A5       Bb5
one who doesn't care--------is one who shouldn't be     I've tried to hide

   Cadd9               A5       Bb5     Cadd9
my-self  from what is wrong for me.     



this is a real quick job of the solo: (b=bend)
----------------------------------------|----------------------------------5-
7bendhold--7-7-7-7-7-7-7-7-7-7-7-7-7-7-7|--------------------------------4--8
7holdbend--7-7-7-7-7-7-7-7-7-7-7-7-7-7-7|-7bp5---5b-----------------57b------
----------------------------------------|--------------7-5--7--5h7-----------
----------------------------------------|------------------------------------
----------------------------------------|------------------------------------

--------------------------------|---------------|----------------------------
----8---------------------------|---------------|---20b----20b----20b17------
--------5--7-7bp5------5b-------|---------------|-----------------------19---
--------------------7------7--7-|---------------|-2--------------------------
--------------------------------|-----3----3-4b-|-0--------------------------
--------------------------------|3h5----5-------|----------------------------

-20b---20b----20bp17-------17----|-------------------------------------------
----------------------20-----20b-|-------------------------------------------
---------------------------------|19\17--17-17\16-16---16\14-14-14\12\9-9----
---------------------------------|-------------------------------------------
---------------------------------|17\15--15-15\14-14---14\12-12-12\10\7-9----
---------------------------------|-------------------------------------------

---------------------------------- 
--2-3/5--3-2---------------------- 
---------------2------------------ 
------------------2--------------- 
------------------0------000------
----------------------------------
Komentari
Još nema komentara