Parni Valjak

U ljubav vjerujem (solo)

by: nbedeko2

Pronađi akord!

Ne znaš kako odsvirati neki od akorda pjesmi U ljubav vjerujem (solo)? Upiši akord u tražilicu i saznaj!

Traženi akord će se prikazati ovdje

Od istog izvođača

Pregledano 10008 puta
Pregledano 587216 puta
Pregledano 9914 puta
Pregledano 17314 puta
Pregledano 5280 puta
Trebaš ritam za ovu pjesmu? Pronađi ga ovdje
Solo je skidan po sluhu tak da ak uočite kaj krivo, odma recite kaj se ispravi...:thumbsup
Akordi/Tabovi:
E--------------------------------------5/6-5--------------------5-7/9-7~-
B--------------5-7------------5-5-7-5~-5/6-5-3p2--------------5----------
G-----2h4-4/6~-----4~-2-4-4/6--------------------2------4-4/6------------
D-2h4----------------------------------------------4~-2------------------
A------------------------------------------------------------------------
E------------------------------------------------------------------------

E-------------12-------12-------12---------------------------------------
B-10-12-12-14----12-14----12-14----12-14-14-12~-10p9-7---7---------------
G------------------------------------------------------9---6-6/9~--------
D------------------------------------------------------------------------
A------------------------------------------------------------------------
E------------------------------------------------------------------------

E----12---------------------------------12-12-9-12^ˇ~~-
B-10----10-10^-10-9p7-------7-10-12-12^----------------
G---------------------9-6-9----------------------------
D------------------------------------------------------
A------------------------------------------------------
E------------------------------------------------------

Uživajte!:rozi
Komentari

tionio kaže:

hm....dobro je!...ali mi nikako ne pase ovo

E-5/6-5 E-5/7-5
B-5/6-5 B-5/7-5
G------ G------
D------ D------
A------ A------
E------ ja mislim da vise pase E------, a drugo je sve super, Hvala!

25-04-2009 14:29

tionio kaže:

malo je ne razumljivo jer mi se pobrckalo gore


Ovo mi ne paše
E-5/6-5
B-5/6-5
ja mislim da bi trebalo biti:
E-5/7-5
B-5/7-5

25-04-2009 14:32

nbedeko2 kaže:

Da. Sad sam skužil tek. I ja sviram 5/7 al sam tu napisal 5/6 zabunom. Sad vidim da ima još greški

02-05-2009 11:09

tionio kaže:

da......

04-05-2009 23:40