Anathema

Release

by:

Pronađi akord!

Ne znaš kako odsvirati neki od akorda pjesmi Release? Upiši akord u tražilicu i saznaj!

Traženi akord će se prikazati ovdje

Od istog izvođača

Pregledano 1696 puta
Pregledano 2164 puta
Pregledano 1457 puta
Pregledano 1573 puta
Pregledano 1639 puta
Trebaš ritam za ovu pjesmu? Pronađi ga ovdje
Akordi/Tabovi:
.  - palm mute          /  - slide up to
\  - slide down to      ~  - vibrato
h  - hammer on          b  - bend
p  - pull off            Suffixes for bend
                          ph - pinch harmonic
                           f - full bend    h - half bend
*  - see comment           r - release      t - tap bend
X  - percussion mute       ~ - vibrato bend
@  - slight palm mute     () - ghost note, sustained note


Tune Gtr to D


--R E L E A S E--


Riff A
|------------------------------------------------------------------|
|------------------------------------------------------------------|
|-------2------------2------------2------------2------------2------|Gtr
|------------2------------2------------2------------0------------0-| I
|-0--0-----0---0--0-----0---0--0-----0---0--0-----0---0--0-----0---|
|------------------------------------------------------------------|




|----------------------------------------|
|---------------------------------0------|
|-------2------------2-------------------|Gtr
|------------3------------3------------2-| I
|-0--0-----0---0--0-----0---0--0-----0---|
|----------------------------------------|



Riff B
|----------------------------------------------------------------|
|----------------------------------------------------------------|
|-5/7--7---5--4-2---2--5---5---4--2-2-2--2---4---4--4--2-2--2--2-|Gtr
|-0----0---0--0-0---0--3---3---3--3-3-3--3---2---2--2--2-2--2--2-| I
|--------------------------------------------0---0--0--0-0--0--0-|
|----------------------------------------------------------------|
|                                                                |
|----------------------------------------------------------------|
|----------------------------------------------------------------|
|-7----7---7--7-7---7------------------------2---2--2--2-2--2--2-|Gtr
|-7----7---7--7-7---7--3---3---3--3-3-3--3---2---2--2--2-2--2--2-| II
|-5----5---5--5-5---5--3---3---3--3-3-3--3---0---0--0--0-0--0--0-|
|----------------------1---1---1--1-1-1--1-----------------------|
    .



|---------------------|
|---------------------|
|-4---4--4--2-2--2--2-|Gtr
|-2---2--2--2-2--2--2-| I
|-0---0--0--0-0--0--0-|
|---------------------|
|       |
|---------------------|
|---------------------|
|-2---2--2--2-2--2--2-|Gtr
|-2---2--2--2-2--2--2-| II
|-0---0--0--0-0--0--0-|
|---------------------|
         .


Riff B'
|----------------------------------------------------------------|
|----------------------------------------------------------------|
|----------------------7---7---7--7-7-7--7---4---4--4--2-2--2--2-|Gtrs
|-3----3---3--3-3---3--7---7---7--7-7-7--7---2---2--2--2-2--2--2-|I&II
|-3----3---3--3-3---3--5---5---5--5-5-5--5---0---0--0--0-0--0--0-|
|-1----1---1--1-1---1--------------------------------------------|




Lead (Gtr I plays riff B')
|-17\15--13--12---13--12--10--8--7--5-5--5--5-|
|---------------------------------------------|
|-14\12--10--9----10--9---7---5--4--2-2--2--2-|Gtr
|---------------------------------------------| II
|---------------------------------------------|
|---------------------------------------------|




|-/17\15--13--12---15--13--12--10---10--10/12-12-12-10/12-12-12-|
|---------------------------------------------------------------|
|-/14\12--10--9----12--10--9---7----7---7-/9--9--9--7-/9--9--9--|Gtr
|---------------------------------------------------------------| II
|---------------------------------------------------------------|
|---------------------------------------------------------------|




|-/17\15--13--12---15--13--12--10--8--7-7--7--7-|
|-----------------------------------------------|
|-/14\12--10--9----12--10--9---7---5--4-4--4--4-|Gtr
|-----------------------------------------------| II
|-----------------------------------------------|
|-----------------------------------------------|




|-7--8\7\5---7--8\7\5---7--8\7\5--5---/12-|
|-----------------------------------------|
|-4--5\4\2---4--5\4\2---4--5\4\2--2----/9-|Gtr
|-----------------------------------------| II
|-----------------------------------------|
|-----------------------------------------|




|-/17------15--13--12---15--14---15--11---15--17-|
|------------------------------------------------|
|-/14------12--10--9----12--11---12--9----12--14-|Gtr
|------------------------------------------------| II
|------------------------------------------------|
|------------------------------------------------|




Clean outro lead (Gtr I plays riff A)
|--------------------------------------------------------------------|
|---------------------------------------------------------13h15------|
|-14bhr---12--10--9---(14)bfr~-----------------------------------14~-|Gtr
|---------------------------------10h12-------10h12------------------| II
|---------10--8---7----------------------12~---------12~-------------|
|--------------------------------------------------------------------|




|--------------------------------------------------------------|
|----------------------------------------------------13h15-----|
|---------------9/10\9-------------------------12h14-------14~-|Gtr
|----------------------9--7~---10h12~--------------------------| II
|-8--7h8--7~----7/8-\7------------------12~--------------------|
|--------------------------------------------------------------|




|---------------------------------0----------0--0--|
|-------------------10h12--10~----0h1p0------3--3~-|
|----------------9----------------------2-0--2--2~-|Gtr
|----7h9--7~---------------------------------------| II
|-7------------------------------------------------|
|--------------------------------------------------|
Komentari
Još nema komentara