Anathema

Flying

by:

Pronađi akord!

Ne znaš kako odsvirati neki od akorda pjesmi Flying? Upiši akord u tražilicu i saznaj!

Traženi akord će se prikazati ovdje

Od istog izvođača

Pregledano 1572 puta
Pregledano 2162 puta
Pregledano 1694 puta
Pregledano 1809 puta
Pregledano 1967 puta
Trebaš ritam za ovu pjesmu? Pronađi ga ovdje
Akordi/Tabovi:
Capo at 3rd fret for both guitar


First guitar (remember.. capo at 3rd)

Vers
Am - E     If you don't have the capo Cm and G

At 1:02

F - Am - E     If you don't have the capo G# - Cm - G

At 1:27

F - G - F - E    If you don't have the capo G# - A# - G# - G

In the final part during the solo

F and E, then F - G - E    If you don't have capo G# - G, then G# - A# - G


Second Guitar
Intro (remember.. there is a capo at 3rd freat, so if you don't have it, the first note B|-5 it's B|8

E|-------------------------------------------|
B|-5----------5---0-1-0-1s5------------5--0--|
G|-----2-5-4--------------------2-4-5-4------|
D|---2------2-----------------2--------2-----|
A|-------------------------------------------|
E|-------------------------------------------|

During second vers
E|------------------|
B|-1-5------------5-|
G|-----2-4-5--4-----|
D|--------------2---|
A|------------------|
E|------------------|

RIFF at 1:41

E|---15------15-----15------------------|
B|-16---16-15--15-16--16-15-12-13-12----|s5
G|--------------------------------------|
D|--------------------------------------|
A|--------------------------------------|
E|--------------------------------------|


During the chorus the same chord of first guitar with a little gain

SOLO at 3:33 (in this part the capo isn't needed)

E|-13-11-11-10-10------|
B|----------------13---|
G|---------------------|
D|---------------------|
A|---------------------|
E|---------------------|

E|11-10-10-7-7---------|
B|------------7-8------|
G|---------------------|
D|---------------------|
A|---------------------|
E|---------------------|

then at 4:14
E|-16-15-13-15-13---13--------------------|
B|----------------16--16-15-13-15-13------|
G|----------------------------------------|
D|----------------------------------------|
A|----------------------------------------|
E|----------------------------------------|

at 4:16
E|-18-16-15-16-15--15------------------|
B|---------------18--18-16-15-16-15----|
G|-------------------------------------|
D|-------------------------------------|
A|-------------------------------------|
E|-------------------------------------|


at 4:19
E|-16-15-13-15-13---13--------------------|
B|----------------16--16-15-13-15-13------|
G|----------------------------------------|
D|----------------------------------------|
A|----------------------------------------|
E|----------------------------------------|

then repeat the first part of the solo

OUTRO.. This part it's only on the live version

E|-10s11s10-8-6--6s8s6-4-3------------------------|
B|----------------------------4s6-4-6-4-4---3-4-6-|
G|------------------------------------------------|
D|------------------------------------------------|
A|------------------------------------------------|
E|------------------------------------------------|

then repeat slowly the first part of the solo
Komentari
Još nema komentara