Lepa Brena

Miki,Mico

by: faLLen_angel

Pronađi akord!

Ne znaš kako odsvirati neki od akorda pjesmi Miki,Mico? Upiši akord u tražilicu i saznaj!

Traženi akord će se prikazati ovdje

Od istog izvođača

Pregledano 4610 puta
Pregledano 5953 puta
Pregledano 9104 puta
Pregledano 16954 puta
Pregledano 2594 puta
Trebaš ritam za ovu pjesmu? Pronađi ga ovdje
Akordi/Tabovi:
                 

                   Lepa Brena
                  -Miki,Mico-

Tema

   Am                                   Dm               Am
E||-----------12---------------12-------17---17--15-------------------|
B||----10-13------13-----10-13-----13---18---18--17--18--17h18h17-----|
G||--9-----------------9-----------------------------19--17-19-17-----|
D||---------------------------------------------------------------19--|
A||-------------------------------------------------------------------|
E||-------------------------------------------------------------------|

   G                                                        C  G     
E||--15------15--15--15--15h17h15---15--19------17--15----------|
B||--17------17--17--17--17-18-17---17--20------18--17--18--17--|
G||-----------------------------------------------------19--17--|
D||-------------------------------------------------------------|
A||-------------------------------------------------------------|
E||-------------------------------------------------------------|

   Am                                   Dm               Am
E||-----------12---------------12-------17---17--15-------------------|
B||----10-13------13-----10-13-----13---18---18--17--18--17h18h17-----|
G||--9-----------------9-----------------------------19--17-19-17-----|
D||---------------------------------------------------------------19--|
A||-------------------------------------------------------------------|
E||-------------------------------------------------------------------|

   Dm                           F                               
E||--17--15---------------------15------17--15------17--17--15------|
B||--18--17--18--17h18h17-------17------18--17--18--18--18--17--18--|
G||----------19--17-19-17-----------------------19--------------19--|
D||-----------------------19----------------------------------------|
A||-----------------------------------------------------------------|
E||-----------------------------------------------------------------|

   E7                           Am G             
E||---------------------------------||
B||--17h18h17-15--------------------||
G||---------------17--16--14--------||
D||-----------------------------17--||
A||---------------------------------||
E||---------------------------------||



Strofa>

C              G           C
Imas lepo telo super ti je stas,
G            C    E7       A   G
zbog tebe cu Mico izgubiti glas.
Kosa ti je crna okice zelene,
a ramena snazna k`o sto vole zene.

Refren>

Am           Dm   Am
Joj,joj Miki,Miki joj,
G                           C  E7
sve bi duso dala kad bi bio moj.
Am      Dm        Am
Joj,joj Miki,Miki joj,
Dm        F         E7           Am  E
prevaricu namignucu al` ces biti moj!

Refren 2>

F                        C
Prevaricu duso prevaricu sve
Dm               F         E7
samo da me ljube usne neverne.
Skinucu sa neba sjajne zvezdice,
samo da me grlis moja srecice!
Komentari

korgtr kaže:

I NETREBA TI

02-07-2009 21:26