Hari Mata Hari

Bas Ti Lijepo Stoje Suze (Solo)

by: faLLen_angel

Pronađi akord!

Ne znaš kako odsvirati neki od akorda pjesmi Bas Ti Lijepo Stoje Suze (Solo)? Upiši akord u tražilicu i saznaj!

Traženi akord će se prikazati ovdje

Od istog izvođača

Pregledano 5825 puta
Pregledano 8832 puta
Pregledano 13918 puta
Pregledano 10498 puta
Pregledano 21411 puta
Trebaš ritam za ovu pjesmu? Pronađi ga ovdje
Akordi/Tabovi:
[code]

               Hari mata hari
         -Bas ti lijepo stoje suze-


E||----------------------------------------|
B||----7--7/8--8--7--8-8/10--8---8h7h5--7--|
G||--9-------------------------------------|
D||----------------------------------------|
A||----------------------------------------|
E||----------------------------------------|

                                                                   
E||--14-14-14/--------------------------------------------------|
B||-------------15-14h15h14-------------------------------------|
G||------------------------------16---14-------16---14----------|
D||-------------------------16/------------16/-----------16/17--|
A||-------------------------------------------------------------|
E||-------------------------------------------------------------|

                                                         
E||-------------------------------------------------------------|
B||-------------------------------------------------------------|
G||--14/12-11/12------------16----------------------------------|
D||-------------------16/17----17---16----16h17h16h14-16----16/-|
A||----------------19-------------------------------------------|
E||-------------------------------------------------------------|

                                                             
E||-------------------------------------------------------------|
B||--------------------------------14---12--------14---12-------|
G||--16---14-------16---14-------------------14-------------14--|
D||------------16/-----------16---------------------------------|
A||-------------------------------------------------------------|
E||-------------------------------------------------------------|

                                                       
E||------------------------------------||
B||--15---14---12--12---14---14/15/14--||
G||------------------------------------||
D||------------------------------------||
A||------------------------------------||
E||------------------------------------||
[/code]
Komentari
Još nema komentara