Oktobar 1864

Muzika Noći

by: faLLen_angel

Pronađi akord!

Ne znaš kako odsvirati neki od akorda pjesmi Muzika Noći? Upiši akord u tražilicu i saznaj!

Traženi akord će se prikazati ovdje

Od istog izvođača

Pregledano 9162 puta
Pregledano 11076 puta
Pregledano 2016 puta
Pregledano 3837 puta
Pregledano 3647 puta
Trebaš ritam za ovu pjesmu? Pronađi ga ovdje
Akordi/Tabovi:
     Muzika noci 
    -Oktobar 1864-

Tema sax
E||-----------5--------------------------------/5--/5--|
B||--------5-------8----5------------------------------|
G||------5-----------------------------5---------------| 2x
D||--5-7----------------------7--5--7-----7------------|
A||----------------------------------------------------|
E||----------------------------------------------------|

                   
Strofa

C6*
Nikad, nikad neces znati sto znam samo ja.
Nikad, jer istina je u dzepu mrvica.
Predji trg moj dom je na drugoj strani obale.
Posmatraj nocu moje tamne prozore.

Refren>

Dm          Am*
Ja zivim na drugoj strani.
To nije tvoj svet.
Ti ne poznajes muziku noci.
Dm         B    E
Ne razumes moje sne.


Ne znas zasto
Moja soba ima bele zidove.
I zasto nocu stalno
Cujes neke sapate.
Ako krenes ka meni
Ostace za tobom strahovi.
Hodaj u ritmu
Najlepsih sonata jeseni.

Ja zivim na drugoj strani.
To nije tvoj svet.
Ti ne poznajes muziku noci.
Ne razumes moje sne


Am*
fill
E||------------------\
B||--13------12--13-- \I ovde moze obican Am.
G||--14--14--14--14--  \
D||------14----------  /
A||------------------ /
E||------------------/

C6*
fill
E||--8----8----8---\
B||--10---10---10-- \ Ovde moze da se svira i bez ovog
G||--12---12---12--  \fill-a,znaci obican C6, ali meni
D||-------10-------  /je ovako punije.
A||--12--------12-- /
E||----------------/
Komentari
Još nema komentara