Divlje Jagode

Ne nisam ja - Intro

by: Denis

Pronađi akord!

Ne znaš kako odsvirati neki od akorda pjesmi Ne nisam ja - Intro? Upiši akord u tražilicu i saznaj!

Traženi akord će se prikazati ovdje

Od istog izvođača

Pregledano 4885 puta
Pregledano 4599 puta
Pregledano 59240 puta
Pregledano 3775 puta
Pregledano 33229 puta
Trebaš ritam za ovu pjesmu? Pronađi ga ovdje
Akordi/Tabovi:
e|-------------------12--13-----12-13-15-15---13-12-----------------12-------------
B|--10--12--13----15------------------------------------15--13--15------13--12--10-
G|---------------------------------------------------------------------------------
D|---------------------------------------------------------------------------------
A|---------------------------------------------------------------------------------
E|---------------------------------------------------------------------------------


-------------12--13-----12-13-15-15---13-12--------------15-------------------------|
-12--13--15------------------------------------15--13--15------12h13p12--10---------|
------------------------------------------------------------------------------------|
------------------------------------------------------------------------------------|
------------------------------------------------------------------------------------|
------------------------------------------------------------------------------------|
Komentari

Darkostinson kaže:

stari imas akkorde?

25-11-2012 18:44