Halid Bešlić

Beograđanka

by: Rudi

Pronađi akord!

Ne znaš kako odsvirati neki od akorda pjesmi Beograđanka? Upiši akord u tražilicu i saznaj!

Traženi akord će se prikazati ovdje

Od istog izvođača

Pregledano 4458 puta
Pregledano 10893 puta
Pregledano 66364 puta
Pregledano 20739 puta
Pregledano 3132 puta
Trebaš ritam za ovu pjesmu? Pronađi ga ovdje
Akordi/Tabovi:
BEOGRAĐANKO Halid Bešlić

Gm             F      Gm
DA SAM TE SREO RANIJE MALO
Bb             F7      Bb 
NE BI MI SRCE ZA DRUGU ZNALO
Cm                Gm     
DA NISAM IM'O JOš LJUBAV NEKU
F                          Gm
NE BI MI SUZE TEKLE NIZ REKU
      Gm           F           Gm
      SAMO ZA TEBE BEOGRAđANKO MALA
      Gm               Bb    F7   Bb
      SAMO ZA TEBE šTO NIKAD NISI ZNALA
      Gm      Eb     F7           Gm
      SAMO ZA TEBE I LJUBAV TVOJU ZANOSNU
      F         Gm    F    Gm
      VRAćAM SE MAJCI U BOSNU

DA LI JE DUNAV ILI JE SAVA
NIKOM NE RECI DEVOJKO MALA
SAKRIJ U SRCU BAR SUZU NEKU
JER SVE CE OTIć' NIZ DUNAV REKU

DA LI SI TUžNA U OVE DANE
DA LI SI PLAčNA KAD ZORA SVANE
DA LI TE MISLI JOš MENI ZOVU
ILI SI NAšLA TI REKU NOVU
prvi dio:intro           
    Gm                                Cm                Gm 
E -(14)-15-13-15-13----------------------------------------I
H ------------------16-15-16-15-13----13-15-16-15-13-16-15-I
G ---------------------------------15----------------------I
D ---------------------------------------------------------I
A ---------------------------------------------------------I
E ---------------------------------------------------------I

drugi dio:intro
   Gm                  F        Gm
E -(14)-15-13----------------------------------------------I
H ------------16-15-13----------------10----10-------------I
G ---------------------14-12-10-12-12----10----12----------I
D ---------------------------------------------------------I
A ---------------------------------------------------------I
E ---------------------------------------------------------I
rudimarakovic@yahoo.com
Komentari
Još nema komentara