Legenda o Gedi Gluperdi

Drenko
Online status:

Korisnici
Pošalji PP
15 odgovora
Država:
Grad: Zagreb
Godine:
Hvala:   0   puta!
#314059 u 12-11-2018 16:40 GMT+01 sat :


https://www.youtube.com/watch?v=0VxM2bk6ChA

molio bih pomoć nekoga s boljim uhom i znanjem oko malog sola na 2:34. nudim pun tavan hvale.


XSARA
Online status:

Moderator
Pošalji PP
4421 odgovora
Država:
Grad: Rijeka
Godine:
Hvala:   86   puta!
#314066 u 12-11-2018 21:23 GMT+01 sat :


e-10b12-8-------8b----
B----------10-10------
G-------------9--------

Akordi/Tabovi:
e-10-12p10-8-10-10-8--------8b----12\5--
B--------------------10-10--------12\5---
G-------------------------9--


e--8-10-7-----------------------
B---------10p9-12-10------------
G-9--------------------8p7--7~--
D--------------------10---10----


e---------------
B-----8--------
G-7/9--7-7-5---
D-----------7~--


čuvaj tavan


...and then one day you find .....