Solo Daleka obala kurve

johy
Online status:

Korisnici
Pošalji PP
1 odgovora
Država:
Grad: Orahovica
Godine:
Hvala:   0   puta!
#313258 u 23-07-2018 14:23 GMT+01 sat :


Pozdrav, ima li tko cijeli solo za Kurve? Na net ne mogu pronaći niti jednu dobru tablaturu za solo. Pokušao sam skinuti na sluh i uspio sam skinuti samo dio

E|----------------------------------------------------------------------------------------------------------|
H|---------------------------------------------------------------------------------------------------------|
D|-4b5--4--------4b5--4~--------------------------4b5-----4--------4b5------4~----------------|
G|-----------7r4 --------------7--4--7-----/19~------------------7r4-------------------7---4----7--|
A|----------------------------------------------------------------------------------------------------------|
E|---------------------------------------------------------------------------------------------------------|

Dodano nakon 39 sekund(e)i

E|------------------------------------------------------------------------------------------------------
H|-----------------------------------------------------------------------------------------------------

D|-4b5--4--------4b5--4~--------------------------4b5-----4--------4b5------4~----------------|

G|-----------7r4 --------------7--4--7-----/19~------------------7r4-------------------7---4----7--|

A|------------------------------------------------------------------------------------------------------
E|------------------------------------------------------------------------------------------------------