Relax don do it...

Stranica 85 od 306
Prva<82838485868788>Zadnja
Arnold Layne
Online status:

Korisnici
Pošalji PP
639 odgovora
Država:
Grad: Konjic
Godine:
Hvala:   0   puta!
#220087 u 17-02-2012 21:24 GMT+01 sat :


Boogie Watersovo gitarist je David Kilminster mjesas ih ovaj Rogerov je super gitarist cak ga je i David hvalio ovo je Kilmore :D


And after all,were only ordinary man
Glam Boogie
Online status:

Moderator
Pošalji PP
9688 odgovora
Država:
Grad: Zara
Godine: 15
Hvala:   62   puta!
#220089 u 17-02-2012 21:27 GMT+01 sat :


Je vidija san posli da san malo pobrka lončiće ali događa se i najboljima :D


Tko pod drugim jamu kopa
fiziči je radnik

GoFgo-O Cesare I Saloute You!!
Arnold Layne
Online status:

Korisnici
Pošalji PP
639 odgovora
Država:
Grad: Konjic
Godine:
Hvala:   0   puta!
#220090 u 17-02-2012 21:29 GMT+01 sat :


reci fino godine


And after all,were only ordinary man
Glam Boogie
Online status:

Moderator
Pošalji PP
9688 odgovora
Država:
Grad: Zara
Godine: 15
Hvala:   62   puta!
#220093 u 17-02-2012 21:42 GMT+01 sat :


Ma je, ma ja san mladić od 50 a vidiču vas o čemu čete pisati ili što čete slušati u tim godinama.

Dodano nakon 3 minute

@XSARA

Što te Blind Man in Dark sa Dose-a ne podsječa na 21st Century shizoid man?Ja san odma pomislija kad san čuo pjesmu,i na drugo slušanje kad san pisao recenziju isto je bilo,prva pomisao Crimsoni.


Tko pod drugim jamu kopa
fiziči je radnik

GoFgo-O Cesare I Saloute You!!
11-The_Wall
Online status:

Korisnici
Pošalji PP
737 odgovora
Država:
Grad: Beli Manastir
Godine:
Hvala:   0   puta!
#220171 u 18-02-2012 15:55 GMT+01 sat :


A u šta sve vi povjerujete, strašno!Hahahah, ja swe to malo šalio, a vidim vi to sve shvatili za ozbiljno, ahahah.Ja još namjerno uvalio dramaturgije u post "...ostavit ću svoj acc da mi bude grob..." ahahahahahh, ja ne mogu vjerovat.
Ono nije bilo za ozbiljno, nego sam shvatio da je ovaj forum u meni izazvao neku vrstu ovisnosti, što je za administratore svakako dobro, jel to znači sa su napravili dobru stranicu, ali za mene nikako nije.
Ajde Glam znam da si tu, piši brate! :)


Mark12345
Online status:


Pošalji PP
odgovora
Država:
Grad:
Godine:
Hvala:   0   puta!
#220172 u 18-02-2012 15:59 GMT+01 sat :


Istina je da se lako navuč.


11-The_Wall
Online status:

Korisnici
Pošalji PP
737 odgovora
Država:
Grad: Beli Manastir
Godine:
Hvala:   0   puta!
#220173 u 18-02-2012 16:02 GMT+01 sat :


Iznenađujuće lako.Ja sam se jednom trnuo i shvatio, pobogu čovječe na šta se tebi život svodi?Na pisanje sranja po forumu?Znači bio sam takav da sam čim imam malo slobodnog vremena trčo za komp da vidim šta tu ima novog.Strava!


Mark12345
Online status:


Pošalji PP
odgovora
Država:
Grad:
Godine:
Hvala:   0   puta!
#220174 u 18-02-2012 16:04 GMT+01 sat :


I šta, sad se opet vratio a?


11-The_Wall
Online status:

Korisnici
Pošalji PP
737 odgovora
Država:
Grad: Beli Manastir
Godine:
Hvala:   0   puta!
#220175 u 18-02-2012 16:07 GMT+01 sat :


Pa rekreativno, dosadan mi vikend nešto, pukla žica na električnoj a nemam rezervni komplet i tak, došo malo da vidim šta se radi tu.Računaj da ću dolazit, ali dosta rijetko.
Iam šta novog kod tebe?Bend neki, ili tako nešto?


Mark12345
Online status:


Pošalji PP
odgovora
Država:
Grad:
Godine:
Hvala:   0   puta!
#220176 u 18-02-2012 16:11 GMT+01 sat :


Eto ja prodo pojačalce pa nabijam akustaru dok ne dođe novo, ali proklete D'addario 12estice mi rastrgale prste.


Glam Boogie
Online status:

Moderator
Pošalji PP
9688 odgovora
Država:
Grad: Zara
Godine: 15
Hvala:   62   puta!
#220180 u 18-02-2012 16:29 GMT+01 sat :


E Wally ma reka san ja biti če njega opet,nije valjda bilo nesreča sa fenom

Dodano nakon 2 minute

Ni ja ne mogu nešto previše postati,malo zdravlje i to,pa ne mogu baš dugo,eto baš se spremam da legnem,nočas nisam oka sklopio.Čujemo se možda poslije.


Tko pod drugim jamu kopa
fiziči je radnik

GoFgo-O Cesare I Saloute You!!
Mark12345
Online status:


Pošalji PP
odgovora
Država:
Grad:
Godine:
Hvala:   0   puta!
#220185 u 18-02-2012 16:49 GMT+01 sat :


Ozdravi Boogie, btw šta ti znači stalno to s fenom? Disi vidio takve stvari?


XSARA
Online status:

Moderator
Pošalji PP
4416 odgovora
Država:
Grad: Rijeka
Godine:
Hvala:   86   puta!
#220217 u 18-02-2012 23:06 GMT+01 sat :


Glam
znan da te ni volja, ali evo ti neš staro i leđero, možda te malo opusti ono: ...aaaaa...sjećaš seee...



...and then one day you find .....
Glam Boogie
Online status:

Moderator
Pošalji PP
9688 odgovora
Država:
Grad: Zara
Godine: 15
Hvala:   62   puta!
#220229 u 19-02-2012 08:40 GMT+01 sat :


Citat
# Mark12345 :
zdravi Boogie, btw šta ti znači stalno to s fenom? Disi vidio takve stvari?



E, radim na tome,radim i trudim se.A fen?

Ma glupiram se.To je bilo u jednoj emisiji 911 u kojoj se tip iša kupati u kadu, i pao mu uključeni fen iz ruke, i doživija strujni udar,koji nurd,ma to samo Amerikanac može.Zaboravija san napisati da je kao u svakoj emisiji,preživio,maheri ti amerikanci,i ništa ih ne može ubiti,pa ni hamburger

@XSARA ma fala ti lipa.Tekst je dobar,odličan čak.

Ovaj post je izmjenjen od Glam Boogie (prije 19-02-2012 10:35, )


Tko pod drugim jamu kopa
fiziči je radnik

GoFgo-O Cesare I Saloute You!!
Arnold Layne
Online status:

Korisnici
Pošalji PP
639 odgovora
Država:
Grad: Konjic
Godine:
Hvala:   0   puta!
#220436 u 20-02-2012 22:53 GMT+01 sat :


Akordi/Tabovi:
Etude in C-Tarrega F.                                   
Valjda ovo L je ko takt ne kontam evo iz gp ovo vam je lagano za svirat sve su osminke probajte prstima :)


 
E||-----------0--------3--------0--------|
B||--------1-----1--------1--------1-----|
G||-----0-----------0--------0--------0--|
D||--------------------------------------|
A||--3--------------L--------------------|
E||--------------------------------------|


-----------0--------3--------0--------|-----------5--------3--------1--------|
--------1-----1--------1--------1-----|--------0-----0--------0--------0-----|
-----0-----------0--------0--------0--|-----0-----------0--------0--------0--|
--------------------------------------|--------------------------------------|
--3--------------L--------------------|--------------------------------------|
--------------------------------------|--3--------------L--------------------|

-----------0--------3--------0--------|-----------0--------4--------0--------|
--------1-----1--------1--------1-----|--------3-----3--------3--------3-----|
-----0-----------0--------0--------0--|-----4-----------4--------4--------4--|
--------------------------------------|--------------------------------------|
--3----------------------------------|--------------------------------------|
--------------------------------------|--0----------------------------------|


-----------5--------8--------5--------|-----------2--------3--------2--------|
--------5-----5--------5--------5-----|--------1-----1--------1--------1-----|
-----5-----------5--------5--------5--|-----2-----------2--------2--------2--|
--------------------------------------|--0--------------L--------------------|
--0--------------L--------------------|--------------------------------------|
--------------------------------------|--------------------------------------|
                               Ovde kad dodjete do ovog G na 3 polju ispocetka svirate i nastavite
-----------3-------------------||------------1--------3--------1--------|
--------0-----0----------------||---------0-----0--------0--------0-----|
-----0-----------0------------*||*-----0-----------0--------0--------0--|
------------------------------*||*--------------------------------------|
-------------------------------||---------------------------------------|
--3--------------L--3----------||---3--------------L--------------------|



-----------0--------1--------0--------|-----------2--------3--------2--------|
--------1-----1--------1--------1-----|--------0-----0--------0--------0-----|
-----0-----------0--------0--------0--|-----2-----------2--------2--------2--|
--------------------------------------|--------------------------------------|
--3--------------L--------------------|--2--------------L--------------------|
--------------------------------------|--------------------------------------|


-----------0--------2--------0--------|-----------1--------3--------1--------|
--------0-----0--------0--------0-----|--------1-----1--------1--------1-----|
-----0-----------0--------0--------0--|-----2-----------2--------2--------2--|
--------------------------------------|--------------------------------------|
--------------------------------------|--------------------------------------|
--0--------------L--------------------|--1--------------L--------------------|


-----------0--------1--------0--------|-----------5--------3--------1--------|
--------1-----1--------1--------1-----|--------0-----0--------0--------0-----|
-----0-----------0--------0--------0--|-----0-----------0--------0--------0--|
--------------------------------------|--------------------------------------|
--------------------------------------|--------------------------------------|
--3--------------L--------------------|--3--------------L--------------------|

-----------0-------------------||
--------1-----1----------------||
-----0-----------0------------*||
------------------------------*||
--3--------------L--3----------||
-------------------------------||



And after all,were only ordinary man