Vjezba za sinkronizaciju lijeve i desne ruke i trzanja

ana963
Online status:

Korisnici
Pošalji PP
52 odgovora
Država:
Grad:
Godine: 49
Hvala:   0   puta!
#72238 u 27-12-2008 19:14 GMT+01 sat :


Kako se ovo svira?

http://www.gitare.info/page.php?id=308


nuka-kola
Online status:

Moderator
Pošalji PP
3101 odgovora
Država:
Grad:
Godine: 49
Hvala:   0   puta!
#72239 u 27-12-2008 19:22 GMT+01 sat :


pa sve ti piše

neš slično ovom
http://www.youtube.com/watch?v=VeC-Xk9v4Us


ana963
Online status:

Korisnici
Pošalji PP
52 odgovora
Država:
Grad:
Godine: 49
Hvala:   0   puta!
#72242 u 27-12-2008 19:32 GMT+01 sat :


al ne znam kako se cita


nuka-kola
Online status:

Moderator
Pošalji PP
3101 odgovora
Država:
Grad:
Godine: 49
Hvala:   0   puta!
#72243 u 27-12-2008 19:33 GMT+01 sat :


sve ti piše na ovom sajtu


ana963
Online status:

Korisnici
Pošalji PP
52 odgovora
Država:
Grad:
Godine: 49
Hvala:   0   puta!
#72256 u 27-12-2008 20:23 GMT+01 sat :


dali ti shvacas da neki koji ne znaju zele pomoc nekog tko zna?

ne mozes dat link?


nbedeko2
Online status:

VIP
Pošalji PP
1658 odgovora
Država:
Grad: Varaždin, Kozarčeva City
Godine: 27
Hvala:   0   puta!
#72270 u 27-12-2008 21:21 GMT+01 sat :


Pa prvo staviš kažiprst na 1 polje E žice (najdeblja) i odsviraš ton, zatim na 2 polje opet E žice pa odsviraš, pa na 3 polje pa odsviraš, pa na 4 polje pa odsviraš. I tak isto za A žicu (to je žica ispod E žice, znači 5. žica) i D (ispod A, znači 4 žica). Nauči čitat tabove. Imaš tu na sajtu. Sam da ti velim, žice ti se broje od dole prema gore!

Evo ti link za čitanje tablatura: http://www.gitare.info/list.php?c=tablature


Živim luksuzno. Jedem luk i lijem suze.

Bongo R.I.P. (1999.-2011.) Naaajbolji peso!
nuka-kola
Online status:

Moderator
Pošalji PP
3101 odgovora
Država:
Grad:
Godine: 49
Hvala:   0   puta!
#72272 u 27-12-2008 21:51 GMT+01 sat :


Citat
#72256 ana963 :
dali ti shvacas da neki koji ne znaju zele pomoc nekog tko zna?

ne mozes dat link?

a dal ti znaš da nemoš uvijek sve dobit na pladnju i da se ponekad i sama moraš malo potrudit...

2-3 klika gore po alatnoj traki je najmanji trud kojeg moš napravit u svom ucenju


slavac
Online status:

Moderator
Pošalji PP
1385 odgovora
Država:
Grad:
Godine:
Hvala:   3   puta!
#73410 u 02-01-2009 17:56 GMT+01 sat :


ajde cura je...
u tablaturama 6 crta predstavlja žice na gitari...
Akordi/Tabovi:
e|---------------------------------------------------------------|
B|---------------------------------------------------------------|
G|---------------------------------------------------------------|
D|---------------------------------------------------------------|
A|---------------------------------------------------------------|
E|---------------------------------------------------------------|

dakle najniže je 6. žica pa 5. itd.
i sad ako piše
e|--2-------------------------------------------------------------|
B|---------3------------------------------------------------------|
G|----------------------4-----------------------------------------|
D|---------------3------------------------------------------------|
A|---------------------------------------------------------------|
E|------1---------------------------------------------------------|


prvi treba odsvirati 2. prag na 1. (najtanji) žici zatim 6. žicu prag 1. ....2. na 3. polju , 4. na 3. polju i 3. na 4. polju


kužiš?

Ovaj post je izmjenjen od nuka-kola (prije 02-01-2009 18:36, )


ana963
Online status:

Korisnici
Pošalji PP
52 odgovora
Država:
Grad:
Godine: 49
Hvala:   0   puta!
#75381 u 10-01-2009 21:52 GMT+01 sat :


hej..to sto sam cura ne znaci da sam glupa!

shvatila sam..hvala na uputama