Two Gallants - Ride Away

Indubitably
Online status:

Korisnici
Pošalji PP
10 odgovora
Država:
Grad:
Godine:
Hvala:   3   puta!
#313453 u 19-09-2018 12:52 GMT+01 sat :


Hej hej,

Vec dugo znam ovu stvar i jos dulje je zelim nauciti, gitarski picking dio mi je pregroovy :D

Pokusao sam nesto sam, ali ne zvuci tocno, pa ako bi netko s malo iskustva mogao tabirati ili napisati akorde samo, za picking cu se snaci vec, makar bi bilo odlicno kad bi i to netko uspio bio bih veoma zahvalan.

Evo link live-a ako pomaze - https://www.youtube.com/watch?v=odv3gOv-Qo4


XSARA
Online status:

Moderator
Pošalji PP
4421 odgovora
Država:
Grad: Rijeka
Godine:
Hvala:   86   puta!
#313455 u 19-09-2018 21:11 GMT+01 sat :


Ovako ti otprilike ide uvod, mislim da dalje možeš sam...
Akordi/Tabovi:
   em   G       B-Bsus4-B  2x
e---0------3-------0------
B----0-------3----4-4-4---
G--0-----0-------4---4----
D-------------------------
A---------------2---------
E-0-----3---------------- 

  em   G      D-Dsus2-D
e---0-----3------2-0-2------
B----0-----3------------3-----
G--0----0------2---------2----
D-------------0----------
A-----------------------
E-0----3----------------

  em     B       em
e-------------------------
B---8------7--------8-----
G-----9-----8------9-9----
D------9------9---9---9---
A--7-------------7--------
E---------7---------------



...and then one day you find .....