Severina - prijateljice

GNR, ACDC
Online status:

Korisnici
Pošalji PP
42 odgovora
Država:
Grad: SB
Godine:
Hvala:   0   puta!
#235008 u 28-07-2012 12:19 GMT+01 sat :


Pozdrav društvo,

na stranici postoje akordi za pjesmu ali bi mi trebao i ritam kako ide, ne znam baš odrediti ritam.

I ako je netko slučajno skidao uvod i onu solažicu, bio bih zahvalan.

Postavio sam i tamo ovakav post ali pošto bi mi to trebalo što prije nadam se da će se ovdje prije vidjeti.


Stomina
Online status:

Korisnici
Pošalji PP
27 odgovora
Država:
Grad: Križevci
Godine:
Hvala:   1   puta!
#235475 u 04-08-2012 05:46 GMT+01 sat :


Akordi/Tabovi:
Uvod:

E ---15-15-15-14--12--10-3-10-10-10-10-8-8-8-7-8-8-7-8-15----------------|
H -------------------------------------------------------------1-3---0---|
G ---------------------------------------------------------0-2-----0-----|
D -----------------------------------------------------------------------|
A -----------------------------------------------------------------------|
E -----------------------------------------------------------------------|


G      D            Em
Azurno nebo, cekamo zoru,
C         D            G
pet, sest mladih golubica,
C           D            G             Em
nasmijesena su im lica i poslije mnogo godina
C           D     G
u mome srcu draga slicica


Prijelaz: Em C

E --------------------------------------------------|
H --3-3-3-3-1-0-1-0-----3-----0-1-0-3---------------|
G --------------------0---0-2-----------------------|
D ------------------4-------------------------------|
A --------------------------------------------------|
E --------------------------------------------------|

G           D          Em
zajedno smo momke gledale,
C          D        G
zajedno po rivi setale,
C          D
pravile se da smo vazne,
G           Em
da smo pametne i snazne,
C           D          G
sanjale smo zemlje daleke.

C   D         G              Em
Hej ljepotice moje prijateljice,
C            D         G
gdje su nasi snovi ostali,
C   D          G         Em
hej sve smo mi kao ptice selice,
C           D        G
svaka svome jugu odleti,

Prijelaz: Em C

G          D         Em
djevojcice zene postale,
C          D     G
neke su se vec i udale,
C              D
a ja jos cekam azurne zore.
G            Em
Ja jos zelim preplivati more,
C             D      G
ja jos sanjam zemlje daleke

ja mislim da je dobro, barem meni zvuci ok...ako neko misli da nesto ne valja slobodno neka ispravi.



GNR, ACDC
Online status:

Korisnici
Pošalji PP
42 odgovora
Država:
Grad: SB
Godine:
Hvala:   0   puta!
#235657 u 06-08-2012 15:28 GMT+01 sat :


Hvala ti puno na trudu, a jel možeš napisati ritam kako ide, ono gore dole GDDG itd...

Hvala


Stomina
Online status:

Korisnici
Pošalji PP
27 odgovora
Država:
Grad: Križevci
Godine:
Hvala:   1   puta!
#235797 u 09-08-2012 05:58 GMT+01 sat :


pa ja je sviram sa ritmom DD GG DG i meni tako zvuci ok..


GNR, ACDC
Online status:

Korisnici
Pošalji PP
42 odgovora
Država:
Grad: SB
Godine:
Hvala:   0   puta!
#235888 u 10-08-2012 13:34 GMT+01 sat :


Hvala, svirao sam tako al' nisam bio siguran da je to to.