tose proeski mala

d-mol
Online status:

Korisnici
Pošalji PP
2 odgovora
Država:
Grad: Petrinja
Godine: 50
Hvala:   0   puta!
#189264 u 30-05-2011 23:24 GMT+01 sat :


tose proeski mala

INTRO;C D e b C D E
E-------------------------------------------------------------------------------
B-------------------------------------------------------------------------------
G-------------5/7-7-7-7-9-7----5/7-7-7-7-9-7-----10-9-7-4-----10-9-7-4----------
D-------------------------------------------------------------------------------
A-------------------------------------------------------------------------------
E-------------------------------------------------------------------------------

E-------------------------------------------------------------------------------
B-----/15-15-15-15-17-15----/15-15-15-15-17-15h17b---15-17-15------------------
G-------------------------------------------------------------17-15-17--15------
D--------------------------------------------------------------------------17---
A-------------------------------------------------------------------------------
E-------------------------------------------------------------------------------


/-slide
h-hammer
b-bend

Am
Ne znam adresu ni broj
C
a gde si ti?
Am
Ostajem zauvek tvoj
C
a gde si ti?

C
Mala,
Am
uspomene izjedaju
G
spreman na predaju
A
otkacen odbacen
D
zivim od secanja

C
Srca nam puna
D
jutro nas budi
e G
na istome uzglavlju
C
i kao praznik
D E
tako nam pocinje dan
C
Poljubac, zagrljaj
D
delimo srecu
e b
sa osmehom i ljubavlju
C
suvise ljepo
D E e
naglo je prekinut san

C D e b C D E








Tvog srca podstanar


a gde si ti?

Obicna potrosna stvar

a gde si ti?


Mala,
ja na sve pristajem

krivicu priznajem

povredjen pobedjen

zivim od secanja

Srca nam puna
jutro nas budi
na istome uzglavlju
i kao praznik
tako nam pocinje dan

Poljubac, zagrljaj
delimo srecu
sa osmehom i ljubavlju
suvise lepo
naglo je prekinut san

Ovaj post je izmjenjen od d-mol (prije 14-12-2012 11:37, )


gkiki300
Online status:

Korisnici
Pošalji PP
10 odgovora
Država:
Grad:
Godine:
Hvala:   0   puta!
#202516 u 28-09-2011 20:53 GMT+01 sat :


dal može tko napisat solo od ovoga, bio bih mu jako zahvalan...:)


d-mol
Online status:

Korisnici
Pošalji PP
2 odgovora
Država:
Grad: Petrinja
Godine: 50
Hvala:   0   puta!
#246467 u 14-12-2012 11:39 GMT+01 sat :


skino sam po sluhu nije skroz tocno