Uzicko Kolo

Stranica 1 od 2
12>
mangup99
Online status:

Korisnici
Pošalji PP
54 odgovora
Država:
Grad: Uzice
Godine: 49
Hvala:   0   puta!
#144457 u 17-04-2010 20:54 GMT+01 sat :


da li bi nekao mogao da mi kaze gde mogu da nadjem ovu stvar :)


!!!!!!!!! keep rocking the world !!!!!!!!!!!!
ajme meni
Online status:

Korisnici
Pošalji PP
159 odgovora
Država:
Grad:
Godine: 49
Hvala:   0   puta!
#144477 u 18-04-2010 03:37 GMT+01 sat :


http://www.youtube.com/watch?v=PCrNORbMuR0


FireGuitar
Online status:

Korisnici
Pošalji PP
77 odgovora
Država:
Grad: _______
Godine: 49
Hvala:   0   puta!
#144482 u 18-04-2010 11:51 GMT+01 sat :


Mislio je na tablaturu,valjda!!!


mangup99
Online status:

Korisnici
Pošalji PP
54 odgovora
Država:
Grad: Uzice
Godine: 49
Hvala:   0   puta!
#144486 u 18-04-2010 12:15 GMT+01 sat :


Da tablaturu........ako ima, negde


!!!!!!!!! keep rocking the world !!!!!!!!!!!!
ajme meni
Online status:

Korisnici
Pošalji PP
159 odgovora
Država:
Grad:
Godine: 49
Hvala:   0   puta!
#144490 u 18-04-2010 12:36 GMT+01 sat :


Znam ja da je mislio na tablaturu al nek napise namjerno sam stavio ovo jer ima ljudi koji ne kuze sta hoce...


FireGuitar
Online status:

Korisnici
Pošalji PP
77 odgovora
Država:
Grad: _______
Godine: 49
Hvala:   0   puta!
#144550 u 18-04-2010 21:26 GMT+01 sat :


Pa imas na 2akordi.net....Treba da skines guitar pro....Potrazi na tom sajtu i naces ima 100%


mangup99
Online status:

Korisnici
Pošalji PP
54 odgovora
Država:
Grad: Uzice
Godine: 49
Hvala:   0   puta!
#144583 u 18-04-2010 23:32 GMT+01 sat :


Ja znam sta hocu jer ovo se zove Potraznja Akordi/tablature........logicno je da ne trazim snimak ili nesto........... nije da nisam trazio ali ne znam kako da trazim to na 2akordi.net , dali bi mi dao link , a imam ja gp pro


!!!!!!!!! keep rocking the world !!!!!!!!!!!!
mangup99
Online status:

Korisnici
Pošalji PP
54 odgovora
Država:
Grad: Uzice
Godine: 49
Hvala:   0   puta!
#144926 u 22-04-2010 16:20 GMT+01 sat :


nije problem ako nema tablature , jos bolje bi bilo ako neko ima note za ovo ........ umem i njih da citam cak i bolje nego tabove...


!!!!!!!!! keep rocking the world !!!!!!!!!!!!
mangup99
Online status:

Korisnici
Pošalji PP
54 odgovora
Država:
Grad: Uzice
Godine: 49
Hvala:   0   puta!
#147659 u 23-05-2010 14:15 GMT+01 sat :


Nasao hvala ti :D skinuo juce ... :)


!!!!!!!!! keep rocking the world !!!!!!!!!!!!
emil-chelsea
Online status:

Korisnici
Pošalji PP
1 odgovora
Država:
Grad: velika kladusa
Godine: 49
Hvala:   0   puta!
#166945 u 23-11-2010 02:00 GMT+01 sat :


drug sad samo molim te ako ti nije belaj da mi das link gdje si nasao tab..citavu stranicu presao nema...-_-


Aljosa20
Online status:

Korisnici
Pošalji PP
3 odgovora
Država:
Grad:
Godine: 49
Hvala:   2   puta!
#175910 u 09-02-2011 00:16 GMT+01 sat :


prva zica, najtanja :)
-0-7-6-7-9-7-6-7-0-4-4-5-5-0-4-4-5-5-5-0-2-2-2-2


JigSaw
Online status:

Korisnici
Pošalji PP
2 odgovora
Država:
Grad:
Godine: 49
Hvala:   0   puta!
#176374 u 12-02-2011 18:36 GMT+01 sat :


Burazz,, Dobroe OVo al bili Mogao citavu tablaturu stavit...


krsta4
Online status:

Korisnici
Pošalji PP
1 odgovora
Država:
Grad: hMILTON
Godine: 49
Hvala:   0   puta!
#176383 u 12-02-2011 20:55 GMT+01 sat :


jeli moze neko stavite link za uzicko kolo tablaturu ili note trebami puno hvala


Zeleni_Zub
Online status:

VIP
Pošalji PP
2144 odgovora
Država:
Grad: Tešanj
Godine: 26
Hvala:   41   puta!
#176384 u 12-02-2011 21:13 GMT+01 sat :


Ovako nekako sam ga ja skinuo :)
Akordi/Tabovi:
e-4-7-6-7-9-7-6-7--0-4-4-4-5-5-5-4--0-4-4-4-5-5-5-4--0-2-2-0-   2x

e-0-4-5-4--4-5-4--4-5-4--2-2--0-4-5-4--5-4-4-0-2--7-5-4-0----

e-0-4-5-4--4-5-4--4-5-4--2-2--0-4-5-4--5-4-4-0-2--0-2-0-2----

e-0-5-4-5-7-9-10-9-7-9--12-10-10-10-9-9-9-7-7-7-5-7----------    2x

(Normalno, ovo treba prasiti jako brzo, tako da skoro svaki ton treba okinuti vise puta odjednom)


Aye hot babie what are you doing later i am guitar player in band
Kad porastem zelim da budem kao GoFgO
jakovblazevic
Online status:

Korisnici
Pošalji PP
56 odgovora
Država:
Grad: charlotte
Godine: 49
Hvala:   1   puta!
#176400 u 13-02-2011 01:41 GMT+01 sat :


Akordi/Tabovi:
Uvod:
   G  E           G A  G   E           G A
E--------------------------------------------|
H--------------------------------------------|  itd.
G--------------------------------------------|
D--------------------------------------------|
A--5--2-2-2-2-2-2-5s7-7-5--2-2-2-2-2-2-5s7-7-|
E--3--0-0-0-0-0-0-3s5-5-3--0-0-0-0-0-0-3s5-5-|

Tekst ne znam ceo, pa necu da ga saljem. Valjda ga ima
u arhivi... Poenta je da ide suplja prica, posle koje se opici

rif:
E---------------         E-----------------|
H---------------         H-----------------|
G---------------         G-----------------|
D---------------   ili:  D-----------------|
A--2-5s7-7-5-2--         A--2-5---5---5-2--|
E--0-3s5-5-3-0--         E--0-3-0-3-0-3-0--|

Onda ide onaj deo: "Nemoj, Ziko, videce me tata, tata, TA TA TA TA!
koji se prati sa A, i onda se predje u E

E                                    A
Otad stana, otad stana zove: "Hajmo, lolo!"
E            A       Fis7   H
Zove:"Hajmo, lolo, u zikino kolo!" itd...

Solo(inace Uzicko kolo!):

Figura1:
   E                              A       E        A            Fis7     H
E---------------9-------------------------------------------------------------|
H----9-12-11-12--12-11-12---9---9-10-10^9---9----9-10-10^9------------12------|
G--9----------------------9---9-----------9---11-----------9^11-11-11----11-11|
D-----------------------------------------------------------------------------|
A-----------------------------------------------------------------------------|
E-----------------------------------------------------------------------------|

Figura2:
   E                     H                          E
E---------------------------------------------------------|
H----9-10^9-9-10^9-9-10^9---------9-10-12-10-9------9--9--|
G--9---------------------11--9-11--------------11-9-------|
D---------------------------------------------------------|
A---------------------------------------------------------|
E---------------------------------------------------------|

   E                     H
E--------------------------------------------------------|
H----9-10^9-9-10^9-9-10^9---------9-10-12-10-9-----------|
G--9---------------------11--9^11--------------11-9-11~--|
D--------------------------------------------------------|
A--------------------------------------------------------|
E--------------------------------------------------------|

Figura3(2x):

          A                                 H          E
E-------------------9-10-9----9--12-10-10-9-9--------------|
H-------9-10-9-10-12-------12-----------------12-12-11-12--|
G--9-11----------------------------------------------------|
D----------------------------------------------------------|
A----------------------------------------------------------|
E----------------------------------------------------------|

Evo ti ovo je kopija sa 2akordi net Vatreni Poljubac-zikino kolo a svira se kao uzicko mozda ti pomogne...