OPCA OPASNOST UZALUD SUNCE SJA + SOLO

Stranica 1 od 2
12>
karlo_1995_st
Online status:

Banned
Pošalji PP
3 odgovora
Država:
Grad: Split
Godine:
Hvala:   0   puta!
#118444 u 26-09-2009 19:45 GMT+01 sat :


Molim vas ako bi netko mogao napisati uvod i solo ove sjajne pjesme : uzalud sunce sja od opce opasnosti.

Unaprijed hvala!


Jimmy30
Online status:

Korisnici
Pošalji PP
9 odgovora
Država:
Grad: Pozega
Godine: 49
Hvala:   0   puta!
#127019 u 27-11-2009 00:59 GMT+01 sat :


aj ja cu ti rjesit to za par dana


dudo01
Online status:

Korisnici
Pošalji PP
4 odgovora
Država:
Grad: Osijek
Godine:
Hvala:   0   puta!
#127266 u 29-11-2009 08:52 GMT+01 sat :


UZALUD SUNCE SJA
OPĆA OPASNOST


D#m H F# C#
BUDIM SE IZ SNA TEBE SAM SANJAO, OPET SAM TEBE SANJAO
D#m H F# C#
VANI SUNCE SJA A JA BI NESTAO, TAKO BI RADO NESTAO
G#m E
OVAJ JE GRAD JOŠ ONAJ ISTI MALI GRAD
H F#
U KOJEM SVAKO SVE O SVAKOM ZNA
G#m E
JA SE JOŠ TRUDIM OSTAT ONAJ STARI JA
H B
ALI NE IDE,BEZ TEBE NE IDE
D# G#m E H
UZALUD SUNCE SJA KAD MI U SRCU PADAJU KIŠE
F# G#m E H
NEBO NE VIDIM OD OBLAKA OTKAD TEBE NEMA VIŠE
F# G#m E H
UZALUD SUNCE SJA KAD JE OKO MENE SAMO NOĆ
D# D# G#m
TI BI MOGLA DONJETI JUTRO, AL` NECES DOĆ


G#m, E, H, B, H, C#


D#m H F# C#
DANI PROLAZE NIŠTA SE NEMJENJA, NIŠTA SE NEMJENJA
D#m H F# C#
MISLIM NA TEBE TO JE KO NAVIKA, PROKLETA NAVIKA
G#m E
OVAJ JE GRAD JOŠ ONAJ ISTI MALI GRAD
H F#
U KOJEM SVAKO SVE O SVAKOM ZNA
G#m E
JA SE JOŠ TRUDIM OSTAT ONAJ STARI JA
H B
ALI NE IDE BEZ TEBE NE IDE


iron_maiden
Online status:

Korisnici
Pošalji PP
79 odgovora
Država:
Grad:
Godine: 49
Hvala:   0   puta!
#128111 u 04-12-2009 23:08 GMT+01 sat :


ako moze tu neko stavit solo?


zohar333
Online status:

Korisnici
Pošalji PP
143 odgovora
Država:
Grad: Virovitica
Godine: 49
Hvala:   0   puta!
#130112 u 17-12-2009 16:39 GMT+01 sat :


ajd molim vas, ak netko zna solo i uvod onaj, ak nije problem... hvala puno


my gear:
Music Man Steve Morse Y2D
Ibanez rg370dx(bridge DiMarzio x2n-neck DiMarzio Paf Pro)
Peavey Bandit 112
Vox Bulldog distortion
yamaha1
Online status:

Neaktivni
Pošalji PP
122 odgovora
Država:
Grad: Šibenik
Godine:
Hvala:   0   puta!
#152958 u 23-07-2010 02:07 GMT+01 sat :


Solo

E||---------11---------------------------------------------------------------------------------------||
B||-14---------11------------------------------------------------------------------------------------||
G||-13b(15)-------13p11-13b(15)rb13-11--16p15h16--16b(18)rb16-15v--11p10h11-11b(13)rb11-10-----------||
D||--------------------------------------------------------------------------------------------------||
A||--------------------------------------------------------------------------------------------------||
E||--------------------------------------------------------------------------------------------------||

E||---------14---------14---------14-14b(16)-14b(16)rb14-12---12-11-12-14--12-11---------------------||
B||-14b(16)----14b(16)----14b(16)------------------------------------------------12------------------||
G||---------------------------------------------------------------------------------11-9-8b(9)rb8v---||
D||--------------------------------------------------------------------------------------------------||
A||--------------------------------------------------------------------------------------------------||
E||--------------------------------------------------------------------------------------------------||

E||-----------------9v---11-11-11--------------------------------------------------------------------||
B||------7v---11v------------------------------------------------------------------------------------||
G||-8v-----------------------------------------------------------------------------------------------||
D||--------------------------------------------------------------------------------------------------||
A||--------------------------------------------------------------------------------------------------||
E||--------------------------------------------------------------------------------------------------||


ImSoHard93
Online status:

Korisnici
Pošalji PP
1 odgovora
Država:
Grad: Gradiska
Godine: 49
Hvala:   0   puta!
#159339 u 15-09-2010 22:43 GMT+01 sat :


a de boga ti reci koja je razlika izmedju B i H??


Kick
Online status:

Moderator
Pošalji PP
1332 odgovora
Država:
Grad: Lipik
Godine: 25
Hvala:   6   puta!
#159347 u 15-09-2010 23:12 GMT+01 sat :


Nema razlike! To je u biti isti ton ali se u engleskom riječniku koristi B a u hrvatskom H! Potpuno isti ton!


Music in da heart!
Wannabe
Online status:

Korisnici
Pošalji PP
46 odgovora
Država:
Grad: Zagreb
Godine: 49
Hvala:   0   puta!
#159351 u 15-09-2010 23:34 GMT+01 sat :


ima razlike...H je "nas"....a B kod "nas" je Bb u americkom..


afwef
Online status:

VIP
Pošalji PP
2451 odgovora
Država:
Grad: Šibenik
Godine: 27
Hvala:   20   puta!
#159352 u 15-09-2010 23:35 GMT+01 sat :


Nije bas da nema, u hrvatskom ti B moze znaciti snizeni H ali americki B je isto sto i nas H


GodOfWar1
Online status:

Korisnici
Pošalji PP
58 odgovora
Država:
Grad: Knin
Godine:
Hvala:   0   puta!
#159411 u 16-09-2010 19:35 GMT+01 sat :


Citat
# Wannabe : ima razlike...H je "nas"....a B kod "nas" je Bb u americkom..


B-H isti je to ton-akord,a drugo je Bb što je snižena verzija B-a ili H-a...opće se piše Bb ako smo kod snizilice jer ne znam kako bi izgledalo Hb npr...barem meni glupo izgleda..!


troolex
Online status:

VIP
Pošalji PP
1707 odgovora
Država:
Grad: županja
Godine:
Hvala:   38   puta!
#159412 u 16-09-2010 19:41 GMT+01 sat :


usput opća se štima u D


"i nogom u guzicu je korak naprijed" I jos nesto - Gofgo je car :) Gofgo care kupi mi cigare
Wannabe
Online status:

Korisnici
Pošalji PP
46 odgovora
Država:
Grad: Zagreb
Godine: 49
Hvala:   0   puta!
#159414 u 16-09-2010 19:49 GMT+01 sat :


Pa sta sam ja reko?....kod nas je H-dur, a snizeno je B...po americkom sistemu koristi se B-dur i snizeno je Bb


GodOfWar1
Online status:

Korisnici
Pošalji PP
58 odgovora
Država:
Grad: Knin
Godine:
Hvala:   0   puta!
#159508 u 17-09-2010 11:21 GMT+01 sat :


Citat
# Wannabe : Pa sta sam ja reko?....kod nas je H-dur, a snizeno je B...po americkom sistemu koristi se B-dur i snizeno je Bb



wtf? onda ja nisam upućen u to,sry...ne ulazim u rasprave u koje se očito ne razuim,ali ja kako znam H i B jedan te isti akord,osim što SNIŽENA VERZIJA h ili B AKORDA SE OZNAČAVA bB A NE "B"kako ti kažeš,ali otom potom...možda ti oblje znaš


Wannabe
Online status:

Korisnici
Pošalji PP
46 odgovora
Država:
Grad: Zagreb
Godine: 49
Hvala:   0   puta!
#159544 u 17-09-2010 20:34 GMT+01 sat :


H i B je isti akord..imas pravo...al ako krenes koristit H u nekoj pjesmi onda za snizeni H-dur koristis B...
ako bi u pjesmi kreno koristit B-dur onda za snizeni B-dur koristis Bb...

Ja sam uvjeren da je tako.:)


Tema zatvorena, nove poruke nisu dozvoljene.