Divlje Jagode-Jedina Moja(uvodni solo)

.:SoMeBoDy:.
Online status:

Korisnici
Pošalji PP
62 odgovora
Država:
Grad: Zagreb
Godine:
Hvala:   0   puta!
#152819 u 21-07-2010 18:19 GMT+01 sat :


Uvodni solo al onaj na elektricnoj,a ne na klasicnoj,taj svugdje nalazim!!
Svima hvala unaprijed.


solo_xx
Online status:

Korisnici
Pošalji PP
488 odgovora
Država:
Grad: Bosanska Krupa
Godine:
Hvala:   0   puta!
#152820 u 21-07-2010 18:28 GMT+01 sat :


Uvod:
E-----------------------------------------------------------------
B-----------8p10b12-10b12r10----8-10----------7p8b10--8b10r8~~----7-8-
G---7/9---------------------------------7-7-------------------------
D-----------------------------------------------------------------
A-----------------------------------------------------------------
E-----------------------------------------------------------------

E-----------------------------------------------------------------
B---------8p10b12-10b12r10----8-10----------10h8-7----7-----------
G---7/9-------------------------------7-7----------7-----9
D-----------------------------------------------------------------
A--------------------------------------------------------------
E--------------------------------------------------------------


izvoli !


Nema nam druge nego u treću
.:SoMeBoDy:.
Online status:

Korisnici
Pošalji PP
62 odgovora
Država:
Grad: Zagreb
Godine:
Hvala:   0   puta!
#152821 u 21-07-2010 18:38 GMT+01 sat :


hvala!!