Lijepa Naša tabovi

GodOfWar1
Online status:

Korisnici
Pošalji PP
58 odgovora
Država:
Grad: Knin
Godine:
Hvala:   0   puta!
#102540 u 25-06-2009 11:48 GMT+01 sat :


dal inetklo zna tabove od lijepe naše???


d.vitovski
Online status:

Korisnici
Pošalji PP
18 odgovora
Država:
Grad: Vukovar
Godine: 49
Hvala:   0   puta!
#102611 u 25-06-2009 16:50 GMT+01 sat :


Tab je dosta jednostavan...izvoli:

E ------------------------------------------------------------
B --3--3--3----1--1-------------------------------------------
G --------------------3--3--------------------0----------------
D -------------------------3-----2--0--2--3------3--2--0--2--3
A ------------------------------------------------------------
E ------------------------------------------------------------


E ------------------------------------------------------------
B --3--3--3----1--1------------------------------------1------
G --------------------3--3-------------------0----2--2-----3---
D -------------------------3----2--0--2--3--------------------
A ------------------------------------------------------------
E ------------------------------------------------------------


E ------------------------------------------------------------
B -----------------------------1-------1--1--1--1--1--------------
G --2--2--2----0--2--2--3-------2-----------------3--2--0-----
D ---------------------------------------------------------------3--
A ------------------------------------------------------------
E ------------------------------------------------------------

E ------------------------------------------------------------
B --3--3--3----1--1------------------------------------1------
G --------------------3--3-------------------0----2--2-----3---
D -------------------------3----2--0--2--3--------------------
A ------------------------------------------------------------
E ------------------------------------------------------------


U mojim venama, još je njenog otrova...
GodOfWar1
Online status:

Korisnici
Pošalji PP
58 odgovora
Država:
Grad: Knin
Godine:
Hvala:   0   puta!
#102794 u 26-06-2009 11:41 GMT+01 sat :


zahvaljujem se :))))


METEOR4444
Online status:

Korisnici
Pošalji PP
167 odgovora
Država:
Grad:
Godine: 49
Hvala:   0   puta!
#145688 u 29-04-2010 23:28 GMT+01 sat :


predobro


XSARA
Online status:

Moderator
Pošalji PP
4414 odgovora
Država:
Grad: Rijeka
Godine:
Hvala:   86   puta!
#145695 u 29-04-2010 23:57 GMT+01 sat :


Nije"predobro",čak ni "dobro"
Ima greška u prva dva reda, ne svira se ton E(2.polje 4.žica) nego Eb(es)(1.polje 4.žica)
(i obično je iz Cdura, a ne iz Bb dura kao ovdje)
Akordi/Tabovi:
e ------------------------------------------------------------
B --3--3--3----1--1-------------------------------------------
G --------------------3--3--------------------0----------------
D -------------------------3-----1--0--1--3------3--1--0--1--3
A ------------------------------------------------------------
E ------------------------------------------------------------


e ------------------------------------------------------------
B --3--3--3----1--1------------------------------------1------
G --------------------3--3-------------------0----2--2-----3---
D -------------------------3----1--0--1--3--------------------
A ------------------------------------------------------------
E ------------------------------------------------------------

i zadnji red:

E ------------------------------------------------------------
B --3--3--3----1--1------------------------------------1------
G --------------------3--3-------------------0----2--2-----3---
D -------------------------3----1--0--1--3--------------------
A ------------------------------------------------------------
E ------------------------------------------------------------



...and then one day you find .....